Oops, an error
Loading. Please wait.

Beethoven Virus Tab

version 2
version 2

Whole song

745 views 9 this week
no commentswrite comment
1 2 3 4 5
3 more votes to show rating
add to favorites
launch autoscroll
font size
0
reset
how to read this tab
guitar tuner
×
Best way to learn
"Beethoven Virus"
Autoscroll
slow
fast
+/-
esc
set tempo
stop
Simbologia:
~ - Dejar sonar (esto depende de los tiempos en la cancion)
v - Vibrato
() - esta n0ta suena muy poco tiempo
b - bend jalar la cuerda
Pues vale a la tablatura anterior
le faltaban los solos asi q aqui los dejo
mmm pues si se parece a la cancion solo si toman bien
los tiempo ya q es algo complicado... si se llegan a atorar
en la cancion pues ahi me avisan: freevolt_110v@
y pues tambien corregi un0 q otro error sale
jeje pobre de kien no califique con 10 eh!

Intro
00:00
e|-------------------------------------------------------------|
B|-------------------------------------------------------------|
G|-------------------------------------------------------------|
D|-4-----5-----7-----9-----10-----10----9-----7-----5-----2----|
A|-2-0-0-3-0-0-5-0-0-7-0-0-8--0-0-8-0-0-7-0-0-5-0-0-3-0-0-4-0-0|
E|-------------------------------------------------------------|

00:03
e|-------------------------------------------10-12-12-12-12-12v-|
B|---10-12-13--15-12--13-10--10-----10-12-13--------------------|
G|-9-----------------------------13-----------------------------|
D|--------------------------------------------------------------|
A|--------------------------------------------------------------|
E|--------------------------------------------------------------|

e|----12-13--------10-12-------------- 10------------|
B|-15-------12--13-------10--10-12-13------12-13-10v-|
G|---------------------------------------------------|X2
D|---------------------------------------------------|
A|---------------------------------------------------|
E|---------------------------------------------------|

00:26
e|-----------------------12-10-8------------8--------------|
B|-10-9-10-12-------12-----------12-10-10-12--10-12--------|
G|------------9-8-9----9-----------------------------------|
D|---------------------------------------------------------|
A|---------------------------------------------------------|
E|---------------------------------------------------------|

e|----------------15-13-12-------------12------------------|
B|----------12-------------15-13-13-15---13-14-------------|
G|-12-11-12----12------------------------------------------|
D|---------------------------------------------------------|
A|---------------------------------------------------------|
E|---------------------------------------------------------|

e|-------12-17----15----13-12----------------------------14-20-|
B|----14----------------------15-14-15----------16----16-------|
G|-14----------14----14-------?--------14-13-14----16----------|
D|-------------------------------------------------------------|
A|-------------------------------------------------------------|
E|-------------------------------------------------------------|

e|----19-17-17-------17-16-17-19--------|
B|-16----------17----------------17-----|
G|----------------16---------?----------|
D|--------------------------------------|
A|--------------------------------------|
E|--------------------------------------|

00:38
e|-12v~--10-8-7(0)8(0)10(0)7(0)8(0)7(0)5(0)4(0)5(0)7(0)8(0)5(0)7~--|
B|-----------------------------------------------------------------|
G|-------------------------?---------------------------------------|
D|-----------------------------------------------------------------|
A|-----------------------------------------------------------------|
E|-----------------------------------------------------------------|

00:44
e|-----15-----------------------------------------------------------|
B|---12----18-17-15-17----15----13----12----13----15----17----13----|
G|-12------------------12----12--?-12----12----12----12----12----12-|
D|------------------------------------------------------------------|
A|------------------------------------------------------------------|
E|------------------------------------------------------------------|

00:45
e|-18~-15-18-15?18?12--15----12----12-17--15--17--13--17--12--17---17|
B|------------------------14------------------------------------15---|
G|-------------------------?----14-----------------------------------|
D|-------------------------------------------------------------------|
A|-------------------------------------------------------------------|
E|-------------------------------------------------------------------|

00:48
e|-----------14-20----19-17---|
B|-16~~----16-----------------|
G|-------16--------16---------|
D|----------------------------|
A|----------------------------|
E|----------------------------|

00:49
e|------------16-19-22-24-19----------------|
B|-------15-17--------------21--------------|
G|-----16--------------------?21------------|
D|---18-------------------------21----------|
A|-19-----------------------------23-19-23--|
E|------------------------------------------|

00:50
e|-12--10-12-8-12-7-12-------------------------|
B|---------------------10-13----13----13---13--|
G|-------------------------?-12----10----9-----|
D|---------------------------------------------|
A|---------------------------------------------|
E|---------------------------------------------|

e|--------------------------------------------------------------|
B|--------------------------------------------------------------|
G|-10--9-10-7-10-5-10---10---10?--------------------------------|
D|--------------------9----7----9-10-12-9-12-7-12--12-7-12--12--|
A|-----------------------------------------------10-------10----|
E|--------------------------------------------------------------|

00:54
e|-------8-10-12-15-24-22-20---------------|
B|------8-------------------20-------------|
G|---7-9--------------------?-21-19--------|
D|-10------------------------------22------|
A|-----------------------------------22----|
E|-----------------------------------------|

e|----------------------------------------------10-8-10-7-10-5-10---|
B|-13--12-13-10-13----13----13---13----13----13-------------------8-|
G|-----------------12----10----9?-----------------------------------|
D|----------------------------------12----10------------------------|
A|------------------------------------------------------------------|
E|------------------------------------------------------------------|

e|-10---10---10---10---|
B|----7----------------|
G|---------9----7------|
D|---------------------|
A|---------------------|
E|---------------------|

00:59 (final del solo)
e|------------16-19-22-24-22-19--------------------17-20-19-17-16-17~|
B|-------15-17------------------21---------------17------------------|
G|-----16--------------------?----21-----------17--------------------|
D|---18-----------------------------24-21-18-19----------------------|
A|-19----------------------------------------------------------------|
E|-------------------------------------------------------------------|


01:03
e|----------------------------------------13-15-15-15-15-15v--|
B|---13-15-16--18-15--16-13--13---13-15-16--------------------|
G|12---------------------------16-----------------------------|
D|------------------------------------------------------------|
A|------------------------------------------------------------|
E|------------------------------------------------------------|

e|----15-16-------13-15v-------------13----------------|
B|-18-------15--16------13--13-15-16-----15-16-13v~----|
G|-----------------------------------------------------|
D|-----------------------------------------------------|
A|-----------------------------------------------------|
E|-----------------------------------------------------|

e|----------------------------------------13-15-15-15-15-15v--|
B|---13-15-16--18-15--16-13--13---13-15-16--------------------|
G|12---------------------------16-----------------------------|
D|------------------------------------------------------------|
A|------------------------------------------------------------|
E|------------------------------------------------------------|


e|----15-16-------13-15v-------------13----------------|
B|-18-------15--16------13--13-15-16-----15-16-13v~----|
G|-----------------------------------------------------|
D|-----------------------------------------------------|
A|-----------------------------------------------------|
E|-----------------------------------------------------|

e|----15-16-------13-15v-------------13----------------|
B|-18-------15--16------13--13-15-16-----15-16-13v~----|
G|-----------------------------------------------------|
D|-----------------------------------------------------|
A|-----------------------------------------------------|
E|-----------------------------------------------------|

e|--20b~-----|
B|-----------|
G|-----------|
D|-----------|
A|-----------|
E|-----------|
Suggest correction
Give kudos to tab author, rate the tab!
1 2 3 4 5
comments
print report bad tab
guest
You may want to rate the tab now too:
select rating
Wanna post a correction for this tab? Suggest correction