Oops, an error
Loading. Please wait.

Cold Blood - Silent Hill 5: Homecoming Tab

127 views 3 this week
no commentswrite comment
1 2 3 4 5
3 more votes to show rating
add to favorites
launch autoscroll
font size
0
reset
how to read this tab
guitar tuner
Autoscroll
slow
fast
+/-
esc
set tempo
stop
Help us to improve Ultimate-Guitar.com Take our survey!
×
 Hola a todos nuevamente aqui les entrego un tab mas de Silent Hill
 Esta vez una de las mejores melodias de la quinta entrega de este
 buen juego...  ,  No encontre este tab por ningun lado asi que decidi
 sacarlo, espero lo disfruten...


   - Utilicen capo en el 2do traste..


  E:- 7
  B:- 5   Para el intro se pone esta posicion
  G:- 4   y se rasguea solo las 3 primeras cuerdas
  D:      de arriba hacia abajo una sola vez.
  A:
  E:

 Luego se hace este punteo.


  e:---0-5-7-5-------
  B:-5----------7----
  G:--------------7--
  D:-----------------
  A:-----------------
  E:-----------------

Todo este proceso se repite varias veces...

  E:-0
  B:-5
  G:-4   Para [ch]A[/ch] siguiente parte se hace esta posicion
  D:     nuevamente se rasguea las 3 primeras cuerdas de
  A:     arriba hacia Abajo una sola vez.
  E:

 Luego se hace este punteo.

  e:-7---------------------------------
  B:---7----5-7----5-7----5-7-8-7-5-----
  G:------4------4-----4-------------4--
  D:------------------------------------
  A:------------------------------------
  E:------------------------------------


Este es todo el tab. Suerte...  Escuchen bien la melodia ^.^
Suggest correction
Give kudos to tab author, rate the tab!
1 2 3 4 5
comments
print report bad tab
guest
You may want to rate the tab now too:
select rating
Wanna post a correction for this tab? Suggest correction