Oops, an error
Loading. Please wait.

Donkey Kong Country Tab

323 views 1 this week
no commentswrite comment
1 2 3 4 5
2 more votes to show rating
add to favorites
launch autoscroll
font size
0
reset
how to read this tab
guitar tuner
×
Best way to learn
"Donkey Kong Country"
Autoscroll
slow
fast
+/-
esc
set tempo
stop
ESTA ES AL PRINCIPIO DEL JUEGO, CUANDO SALE LA INTRO

e|-----5------0-3-1-----|-------6--------5---0---
B|-1-1--------------3---|---3-3--------8---8-----
G|----------------------|------------------------
D|----------------------|------------------------
A|----------------------|------------------------
E|----------------------|------------------------

e|-0-0-8------5-6-8--10---|-------5------0-1-3-1---
B|------------------------|---6-8------------------
G|------------------------|------------------------
D|------------------------|------------------------
A|------------------------|------------------------
E|------------------------|------------------------

O MÁS AVANZADA ASÍ:

e|-----5-----------0-3-1----------------
G|-1-1-------------------3--------------
B|---------2---2--------------0---0-----
D|-------3---3--------------0---0---0---
A|-----------------------1--------------
E|-----1--------------------------------

e|-----6--------------5----0--------------
B|-3-3--------------8---8-----------------
G|-0----------------------------0---0-----
D|----------8----8------------2---2---2---
A|-------10---10-----------3--------------
E|-----6----------------------------------

e|-0-0---8---------5-6-8--10----------
G|-1-1---5-----------------6----------
B|---------5---5-------------7---7---7
D|-----------7---7-------------8---8--
A|-3----------------------------------
E|-------5-----------------6----------

e|------5--------------0-1-3-1------------1---
B|-6-8------------------------------------1---
G|---7--5---5-3-2-3-5--------2---5-3-2-0--2---
D|-8----3-3-------------------------------3---
A|----------------------------------------3---
E|---------------------------1-1----------1---

MI CORREO: juanda0612@
Suggest correction
Give kudos to tab author, rate the tab!
1 2 3 4 5
comments
print report bad tab
guest
You may want to rate the tab now too:
select rating
Wanna post a correction for this tab? Suggest correction