Oops, an error
Loading. Please wait.

Dragon Ball - Budokai 3 Tab

379 views 1 this week
no commentswrite comment
1 2 3 4 5
3 more votes to show rating
add to favorites
launch autoscroll
font size
0
reset
how to read this tab
guitar tuner
×
Best way to learn
"Dragon Ball - Budokai 3"
Autoscroll
slow
fast
+/-
esc
set tempo
stop
Aki.. zta la tab de la cancion DBZ budokai 3 de ps2... excelente rola!!

Intro Guitarra 2 (Tocar con guitarra 1)

Rapido
e---------------------------
B---------------------------
G--9-------9-------9--------
D----9--9----9--9----9------
A---------------------------
E---------------------------


Intro Guitarra 1

e---12--12--12--12b14r------------12--14--14b16r--12--11--------
B-----------------------12~~--14-------------------------14-----
G---------------------------------------------------------------
D---------------------------------------------------------------
A---------------------------------------------------------------
E---------------------------------------------------------------

e-----------12-12-----------12--12-14--16-14-16-14--------------
B---14--12-----------12/14--------------------------------------
G---------------------------------------------------------------
D---------------------------------------------------------------
A---------------------------------------------------------------
E---------------------------------------------------------------

e---12--12-12--12--12b14r------------12--14--16--19-16----------
B--------------------------12----14---------------------19------
G---------------------------------------------------------------
D---------------------------------------------------------------
A---------------------------------------------------------------
E---------------------------------------------------------------

e--------------------16b17r-------------------------------------
B---17-17--------17----------17--19-17--------------------------
G---------------------------------------------------------------
D---------------------------------------------------------------
A---------------------------------------------------------------
E---------------------------------------------------------------

e---------------------------------------------------------------
B----------10--12-------10h12--10----------10-------------------
G---9--12---------9--9--------------12-12-----9-----------------
D---------------------------------------------------------------
A---------------------------------------------------------------
E---------------------------------------------------------------

e---------------------------10--------------11b12---------------
B----------10--12-------12------10-----------------12--10-------
G---9--12---------9--9-------------12--9------------------12----
D---------------------------------------------------------------
A---------------------------------------------------------------
E---------------------------------------------------------------

e--------------10---9-------------------------------------------
B---10-12--12-----------12---------------10--12-------10h12--10-
G---------------------------------9--12---------9--9------------
D---------------------------------------------------------------
A---------------------------------------------------------------
E---------------------------------------------------------------

e----------------------------8----------------------------------
B------10--------12-12-12-12----12--10------10-----10------11b12
G---12----12--9-------------------------12------12-----12-------
D---------------------------------------------------------------
A---------------------------------------------------------------
E---------------------------------------------------------------

e--------------------------------------------10--12--11--12--15-
B---12-10-----12--------12-12-12-13--12--13---------------------
G---------12----------------------------------------------------
D---------------------------------------------------------------
A---------------------------------------------------------------
E---------------------------------------------------------------

e---14-14-14-14--12-11-------12---12---12--12b14r---------------
B--------------------------------------------------12----12/14--
G---------------------------------------------------------------
D---------------------------------------------------------------
A---------------------------------------------------------------
E---------------------------------------------------------------

e---12--14--14b16r--12--11----------------12-12-----------12----
B--------------------------14----14--12-----------12/14---------
G---------------------------------------------------------------
D---------------------------------------------------------------
A---------------------------------------------------------------
E---------------------------------------------------------------

e---12--14--16-14-16-14--------12--12-12--12--12b14r------------
B-----------------------------------------------------12----14--
G---------------------------------------------------------------
D---------------------------------------------------------------
A---------------------------------------------------------------
E---------------------------------------------------------------

e---12--14--16--19-16-----------------------16b17r--------------
B----------------------19--17-17--------17----------17--19-17---
G---------------------------------------------------------------
D---------------------------------------------------------------
A---------------------------------------------------------------
E---------------------------------------------------------------

e---14b15--14-12------------------------------------------------
B---------------------------------------------------------------
G---------------------------------------------------------------
D---------------------------------------------------------------
A---------------------------------------------------------------
E---------------------------------------------------------------

e---10/12--12-10------------12----------------------------------
B-----------------12--11-12----15-12----------------------------
G------------------------------------14-12----------------------
D------------------------------------------14-12----------------
A------------------------------------------------14-12----------
E------------------------------------------------------15-12-12-

Si no entienden algo de la tab... aganmelo saber.. ><
Suggest correction
Give kudos to tab author, rate the tab!
1 2 3 4 5
comments
print report bad tab
guest
You may want to rate the tab now too:
select rating
Wanna post a correction for this tab? Suggest correction