Oops, an error
Loading. Please wait.

Far Off Promise Tab

582 views 3 this week
no commentswrite comment
1 2 3 4 5
2 more votes to show rating
add to favorites
launch autoscroll
font size
0
reset
how to read this tab
guitar tuner
Autoscroll
slow
fast
+/-
esc
set tempo
stop
Help us to improve Ultimate-Guitar.com Take our survey!
×
Gtr I (E A D G B E) - 'Untitled'

Capo of 3rd fret

  Q=90
 3/4
  Gtr I
  H Q     Q  Q  Q    Q  Q  Q    Q  Q  Q    Q  Q  Q    Q  Q
|-----||-----------|-------3--|-0--------|----------|------|
|-----||o-1-----1--|-3-----0--|-1--------|-------3--|-1----|
|---0-||--------0--|----0-----|-------0--|----------|-2----|
|-----||-----2-----|----------|----2-----|-3--2--0--|----2-|
|-----||o-3--------|----------|-3--------|-------2--|-0----|
|-----||-----------|-3--------|----------|----------|------|


  Q    Q  Q  E E   Q  Q  Q    Q  Q  Q    Q  E E Q    Q  Q
|----|-----------|----------|----------|------3-3--|-3--1--|
|-1--|-3-------1-|-1--------|-0--------|-----------|-2-----|
|-2--|-2-----2---|-0-----0--|-0-----2--|-0---------|-------|
|----|----0------|----0-----|----0-----|----2------|-------|
|----|-----------|----------|----------|-----------|-0-----|
|----|-2---------|-3--------|-1--------|-0---------|-------|


                            1.
  Q    Q  Q  Q    Q  Q  Q    Q  Q  Q    Q  Q  Q    Q  Q
|-0--|-1-----1--|-1--0-----|-0-----0--|-------3--|-------|
|----|-3-----3--|-3--1--3--|-1--------|-3--------|-1-----|
|----|----2-----|-------0--|-------0--|-------0--|-2-----|
|----|-0--------|----------|----2-----|----0-----|----2--|
|----|----------|-------2--|-3--------|-2--------|-0-----|
|----|----------|-3--------|----------|----------|-------|


  Q    Q  Q  Q    Q  Q  Q    Q  Q  E E   Q  Q  Q    Q  Q
|----|-------0--|----------|---------3-|-3--1--0--|-------|
|-1--|-0--------|----------|-------1---|-1--3--1--|-1-----|
|-2--|-0-----0--|-2-----2--|-0---------|----------|-0-----|
|----|----0-----|-3--------|-2---------|-0--------|----0--|
|----|----------|----3-----|----3------|----------|-------|
|----|-3--------|-1--------|-0---------|----------|-3-----|


                                                  2.
  Q    Q  Q  Q    Q  Q  Q    H    Q    H    Q      E E E E
|----|----------|----------|---------|----------||-0-------|
|-3--|-1--------|-1--------|-1-------|---------o||-1-----1-|
|----|-------0--|-------0--|------0--|------0---||-----0---|
|----|----3-----|----3-----|-2-------|----------||---2-----|
|----|-3--------|----------|---------|-3-------o||-3-------|
|----|----------|----------|---------|----------||---------|


  E E   E E E E E E   E E E E E E   E E E E E E   E E E E E E   E E E E
|-0---|---------3---|-------------|---------0---|-------------|---------|
|-----|-3-------0---|-1-------1---|-0-----------|-------------|---------|
|---0-|-----0-----0-|-2---2---2---|-----0---0---|-2-------2---|-0-----0-|
|-----|---0---0-----|---2---2---2-|---0---0---0-|-----3-------|-----2---|
|-----|-2-----------|-0-----------|-------------|---3---3---3-|---3-----|
|-----|-------------|-------------|-3-----------|-1-----------|-0-------|


  E E   E E E E E E   E E E E E E   E E E E E E   E E E E E E   E E E E
|---3-|-3---1---0---|-------------|---------1-0-|---------1-0-|---------|
|-1---|-1---3---1---|-1-------3---|-1-----1-----|-1-----1-----|-1-----1-|
|-----|---2---2---2-|-0---0-----0-|-----0-------|-----0-------|-----0---|
|-----|-0-----------|---0---0-----|---2---------|---2---------|---2-----|
|-----|-------------|-------------|-3-----------|-3-----------|-3-------|
|-----|-------------|-3-----------|-------------|-------------|---------|


  E E   H    E E     E E E E E E E E   E S S E E E E E E   E E E E E E
|-1-0-|----------||--0-----3-1-----0-|-----------------0-|-5-----5-3---|
|-----|-1----1-3-||o-1---1---1---1---|-3---1---3-1-0-1---|-----6---1---|
|-----|-0--------||------0-----2-----|-------0-------2---|---5-------0-|
|-----|-2--------||----2-----3-------|---0-----------2---|-3-------2---|
|-----|-3--------||o-3---------------|-----------0-------|-------------|
|-----|----------||------------------|-3-----------------|-------------|


  E E   E S S E E E E E E  3x W
|---3-|-3---1---0----------||------|
|-1---|-1---3---1-3---1-3-o||-1----|
|-----|---2-------0-----0--||-0----|
|-----|-0-----0-----0------||-2----|
|-----|-----------------2-o||-3----|
|-----|-----------3--------||------|
Suggest correction
Give kudos to tab author, rate the tab!
1 2 3 4 5
comments
print report bad tab
guest
You may want to rate the tab now too:
select rating
Wanna post a correction for this tab? Suggest correction