Oops, an error
Loading. Please wait.

Gears Of Wars: Muerte De Dom O Mad World Tab

172 views 1 this week
no commentswrite comment
1 2 3 4 5
2 more votes to show rating
add to favorites
launch autoscroll
font size
0
reset
how to read this tab
guitar tuner
Autoscroll
slow
fast
+/-
esc
set tempo
stop
Help us to improve Ultimate-Guitar.com Take our survey!
×
recuerden unan a yess mortal y tlahuicolotzin
  Em                              A
|-----------------------------------------1---------------1------
|-----1----------------------------------------------------------
|-1-------0---1-------0------------------------------------------
|-----------------3-------1-p-0----------------------------------
|---------------------------------1---------------1--------------
|----------------------------------------------------------------

  Em                              A
 -----------------------------------------1---------------1------|
 -----1----------------------------------------------------------|
 -1-------0---1-------0---1-------3---------------3--------------|
 -----------------3----------------------------------------------|
 ----------------------------------------------------------------|
 ----------------------------------------------------------------|


 Verse

  Em                              G
|----------------------------------------------------------------
|---------------------------------1---1-------1------------------
|-----------------1---1-------------------------------1----------
|----3----3---------------3---3----------------------------------
|----------------------------------------------------------------
|----------------------------------------------------------------
All around me are familiar faces

  D                               A
 ----------------------------------------------------------------
 ----------------------------------------------------------------
 -3---3-------3-------0-----------3---3-------3-------1---0------
 -------------------------------------------------------------3--
 ----------------------------------------------------------------
 ----------------------------------------------------------------
Worn out places, worn out faces

  Em                              G
 ----------------------------------------------------------------
 ---------------------------------1---1-------1------------------
 -----------------1---1-------------------------------1----------
 ----3----3---------------3---3----------------------------------
 ----------------------------------------------------------------
 ----------------------------------------------------------------
Bright and early for their daily races

  D                               A
 ----------------------------------------------------------------
 ----------------------------------------------------------------
 -3---3-------3-------0-----------3---3-------3-------1---0------
 -------------------------------------------------------------3--
 ----------------------------------------------------------------
 ----------------------------------------------------------------
Going nowhere, going nowhere

  Em                              G
 ----------------------------------------------------------------
 ---------------------------------1---1-------1------------------
 -----------------1---1-------------------------------1----------
 ----3----3---------------3---3----------------------------------
 ----------------------------------------------------------------
 ----------------------------------------------------------------
Their tears are filling up their glasses

  D                               A
 ----------------------------------------------------------------
 ----------------------------------------------------------------
 -3---3-------3-------0-----------3---3-------3-------1---0------
 -------------------------------------------------------------3--
 ----------------------------------------------------------------
 ----------------------------------------------------------------
 No expression, no expression

  Em                              G
 ----------------------------------------------------------------
 ---------------------------------1---1-------1------------------
 -----------------1---1-------------------------------1----------
 ----3----3---------------3---3----------------------------------
 ----------------------------------------------------------------
 ----------------------------------------------------------------
Hide my head I want to drown my sorrow

  D                               A
 ----------------------------------------------------------------|
 ----------------------------------------------------------------|
 -3---3-------3-------0-----------3---3-------3-------1---0------|
 -------------------------------------------------------------3--|
 ----------------------------------------------------------------|
 ----------------------------------------------------------------|
No tomorrow, no tomorrow


 Chorus

  Em                              A
|----------------------------------------------------------------
|-------------------------1---1---3---------------3---3----------
|-----------------1---1---------------3---3---3-----------3---3--
|---------3---3--------------------------------------------------
|----------------------------------------------------------------
|----------------------------------------------------------------
And I find it kinda  funny, I find it kinda sad

  Em                              A
-----------------------------------------------------------------
--------------------------1---1---3---------------3---3----------
------------------1---1---------------3---3---3-----------3---3--
--3-------3---3--------------------------------------------------
-----------------------------------------------------------------
-----------------------------------------------------------------
The dreams in which I'm dying are the best I've ever had

  Em                              A
-----------------------------------------------------------------
--------------------------1---1---3---------------3---3----------
------------------1---1---------------3---3---3-----------3---3--
--3-------3---3--------------------------------------------------
-----------------------------------------------------------------
-----------------------------------------------------------------
I find it hard to tell you, I find it hard to take

  Em                              A
-----------------------------------------------------------------
--------------------------1---1---3---------------3---3----------
------------------1---1---------------3---3---3-----------3---3--
--3-------3---3--------------------------------------------------
-----------------------------------------------------------------
-----------------------------------------------------------------
When people run in circles it's a very very


  Em                              A
------------------------------------------1---------------1------
------1----------------------------------------------------------
--1-------0---1-------0------------------------------------------
------------------3-------1-p-0----------------------------------
----------------------------------1---------------1--------------
-----------------------------------------------------------------
MAD world.........................Mad world

  Em                              A
 -----------------------------------------1---------------1------|
 -----1----------------------------------------------------------|
 -1-------0---1-------0---1-------3---------------3--------------|
 -----------------3----------------------------------------------|
 ----------------------------------------------------------------|
 ----------------------------------------------------------------|
MAD world........................Mad world
Suggest correction
Give kudos to tab author, rate the tab!
1 2 3 4 5
comments
print report bad tab
guest
You may want to rate the tab now too:
select rating
Wanna post a correction for this tab? Suggest correction