Oops, an error
Loading. Please wait.

Guitar Man Tab

91 views 1 this week
no commentswrite comment
1 2 3 4 5
3 more votes to show rating
add to favorites
launch autoscroll
font size
0
reset
how to read this tab
guitar tuner
×
Best way to learn
"Guitar Man"
Autoscroll
slow
fast
+/-
esc
set tempo
stop
En esta tab lo q are es separar
con esto: ?|? las partes que quedarían
mejor con dos guitarras. De todos
modos la canción la puse lo mas sencilla
que pude para que se tocara con una guitarra.
Solo en la partes que si se necesita de dos o tres guitarras
las separe, también puse algunos efectos
que hace la segunda guitarra y también la guitarra
de fondo. Es 95% correcta, voy a patear a aquel que la
califique mal!!! Si no aparece completa
envienme un e-mail y yo se las enviare
es que esta muy grande. soy freevolt_110v@

b ? Bend-jalar hacia arriba
~ - dejar vibrar
/ - Slide ? deslizar sin soltar
Pm?? - Palm mute ? lo que esta encima de los puntos
X ? Significa q cayas el sonido de la nota anterior
para tocar la que sigue.

Intro:

Esto va limpio
e|-------------|-------------|-----------|-------------|
B|-------------|-------------|-----------|-------------|
G|-------------|-12-14-15-14-|?----------|-14-16-17b~--|
D|-5-5-5--5/7~-|-------------|-7-7-7--7~-|-------------|
A|-5-5-5--5/7~-|-------------|-7-7-7--9~-|-------------|
E|-3-3-3--3/5~-|-------------|-5-5-5--9~-|-------------|

A partir de aquí todo con distor~~~~
00:05
e|-------------|-------------|-----------|-----------------|
B|-------------|-------------|-----------|-----------------|
G|-------------|-12-14-15-14-|?----------|-14-16-17b~-(16)-|
D|-5-5-5--5/7~-|-------------|-7-7-7--7~-|-----------------|x4 todo
A|-5-5-5--5/7~-|-------------|-7-7-7--9~-|-----------------|
E|-3-3-3--3/5~-|-------------|-5-5-5--9~-|-----------------|
Lo que esta entre paréntesis se hace en la primera
repetición y en la tercera. Es lo mismo para todo
una si y otra no.

Esto lo hace la batería pero iria asi:
00:21               ||esto se hace con otra guitarra
e|------------------|-----|-------------------------------|
B|------------------v-----|-------------------------------|
G|------------------20b---|-?-----------------------------|
D|--5555555555555-------x2|-555555555555///////-----------|
A|--5555555555555---------|-555555555555///////Slide hasta abajo
E|--3333333333333---------|-333333333333///////-----------|

00:28
e|---------------------------------------------------|
B|---------------------------------------------------|
G|---------------------?-----------------------------|
D|--5-5--5-5-5-5--7-7--------------------------------|
A|--5-5--5-5-5-5--7-7--------------------------------|
E|--3-3--3-3-3-3--5-5--------------------------------|
  Pm???

00:30 ? 00:31
e|----------------|
B|----------------|
G|----------20b---|<<esto se hace con otra guitarra
D|--55555-------x2|
A|--55555---------|
E|--33333---------|

00:32
e|---------------------------------------------------------|
B|---------------------------------------------------------|
G|---------------------------?-----------------------------|
D|--5555555555555////hasta---555555555555///////-----------|
A|--5555555555555////la------555555555555///////Slide hasta abajo
E|--3333333333333////mitad---333333333333///////-----------|

00:35
e|----------------------------------|
B|----------------------------------|
G|---------5-5-5-------------?------|
D|--7-7-7--5-5-5-5-5-5--3-3-3-3-3---| x 2
A|--7-7-7--3-5-3-5-5-5--3-3-3-3-3---|
E|--5-5-5--------3-3-3--1-1-1-1-1---|
                      Pm?????

00:43
e|--------------------------------------------------|
B|--------------------------------------------------|
G|---------5-5-5-------------?------------5-5-5-----|
D|--7-7-7--5-5-5-5-5-5--3-3-3-3-3-3-7-7-7-5-5-5-5---|
A|--7-7-7--3-5-3-5-5-5--3-3-3-3-3-3-7-7-7-3-3-3-5---|
E|--5-5-5--------3-3-3--1-1-1-1-1-1-5-5-5-------3---|
                      Pm?????
00:49
e|----------------|
B|----------------|
G|----------------|
D|--7-7--77-5-----|
A|--7-7--77-5?x3--|
E|--5-5--55-3-----|
Pm??????????????

Aquí empieza con dos guitarras
00:51
Guitar 1
e|---------------------------------|
B|---------------------------------|
G|-------------------------?-------|
D|--7----8----7----6-----Todo------|
A|--7-x8-8-x8-7-x8-6-x8----por-----|
E|--5----6----5----4------dos------|
Pm??????????????????????
Guitar 2
e|-------------|-----------------|
B|-------------|-----------------|
G|-12-14-15-14-|-14-16-17b~-(16)-|
D|-------------|-----------------| x4
A|-------------|-----------------|
E|-------------|-----------------|

01:07
Esto es limpio
e|--5~---7~---5~---4~---------|
B|--5~---7~---6~---4~---------|
G|--6~---8~---7~---5~----x2---|
D|--7~---9~---7~---6~---------|
A|--7~---9~---5~---6~---------|
E|--5~---7~---5~---4~---------|

01:24
Otra vez con distor
e|-------||-------------------------------------|
B|-------||-------------------------------------|
G|-------||--5-5-5-5-5-5-5-3-3--?-----x4--------|
D|--7--5-||--5-5-5-5-5-5-5-3-3---5-5--desde la--|
A|--7--5-||--3-3-3-3-3-3-3-1-1---5-5-- marca----|
E|--5--3-||----------------------3-3------------|
                               Pm????
                             |
01:33                        | esto con otra guitarra
e|------------------------|- |--|-----------------------|-----|
B|------------------------|- v--|-----------------------|-----|
G|------------------------|-19b?|-----------------------|-19b-|
D|--5-5-5-5555-5-5-5-5555-|-19b-|-3-3-3-3333-3-3-3-3333-|-19b-|
A|--5-5-5-5555-5-5-5-5555-|-17b-|-3-3-3-3333-3-3-3-3333-|-17b-|
E|--3-3-3-3333-3-3-3-3333-|-----|-1-1-1-1111-1-1-1-1111-|-----|


01:41
e|-----|
B|-----|
G|-----|
D|-----|
A|-----|
E|-----|

01:43
e|--------------
B|--------------
G|--------------
D|-555/12/17~---
A|-555/12/17~---
E|-333/10/15~---


01:45
e|-----------------------------|
B|-----------------------------|
G|-------------------------?---|
D|-3-3-3-4444-3-3-3-444-4/9----|
A|-3-3-3-4444-3-3-3-444-4/9----|
E|-1-1-1-2222-1-1-1-222-2/7----|
Pm?????????????????????

01:49
Guitarra 1
e|---------------------------------|
B|---------------------------------|
G|---------5-5-5-5-------------?---|
D|-7-7-7-7-5-5-5-5-555-5-5-5--x4---|
A|-7-7-7-7-3-3-3-3-555-5-5-5-------|
E|-5-5-5-5---------333-3-3-3-------|
Guitarra 2(comienza después de la primera vez q se hace la guitar 1)
e|------------------------------------------|
B|------------------------------------------|
G|-------------------------?----------------|
D|--5-5-555-5-5-5-5-7-7-7-7-7-9-9-9-9-------|
A|--5-5-555-5-5-5-5-7-7-7-7-7-9-9-9-9--x3---|
E|--3-3-333-3-3-3-3-5-5-5-5-5-7-7-7-7-------|
Pm???????????????????????????????????
Guitarra 3 (esto se hace al principio del tiempo)
e|--------------|
B|--13~/15b~----|
G|--------------|
D|--------------|
A|--------------|
E|--------------|

02:05
e|-------------------------------------------------------
B|-------------------------------------------------------
G|-------------------------?-----------------------------
D|-999-888-777-666-555-444-333-22-2x2x2------------------------------
A|-999-888-777-666-555-444-333-22-2x2x2-------------------------------
E|-777-666-555-444-333-222-111-00-0x0x0------------------------------

02:13
e|---------------------------------------------------------------------|
B|---------------------------------------------------------------------|
G|-----------------5--5--5--5--5~?-----------------5--5--5--5--5-9b~---|
D|-5--5--5--5--5~--5--5--5--5--5~--5--5--5--5--5~--5--5--5--5--5-9b~---|
A|-5--5--5--5--5~--3--3--3--3--3~--5--5--5--5--5~--3--3--3--3--3-7b~---|
E|-3--3--3--3--3~------------------3--3--3--3--3~----------------------|
Pm???????????     Pm?????????      Pm????????      Pm????????

02:20
Guitarra 1
e|---------------------------------|
B|---------------------------------|
G|---------5-5-5-5-------------?---|
D|-7-7-7-7-5-5-5-5-555-5-5-5--x4---|
A|-7-7-7-7-3-3-3-3-555-5-5-5-------|
E|-5-5-5-5---------333-3-3-3-------|
Guitarra 2(comienza después de la primera vez q se hace la guitar 1)
e|------------------------------------------|
B|------------------------------------------|
G|-------------------------?----------------|
D|--5-5-555-5-5-5-5-7-7-7-7-7-9-9-9-9-------|
A|--5-5-555-5-5-5-5-7-7-7-7-7-9-9-9-9--x3---|
E|--3-3-333-3-3-3-3-5-5-5-5-5-7-7-7-7-------|
Pm???????????????????????????????????
Guitarra 3
e|--------------|
B|--13~/15b~----|
G|--------------|
D|--------------|x2
A|--------------|
E|--------------|

02:41 Fin:
e|----------------------|
B|----------------------|
G|--99999/12~-----------|
D|------------12b~~-----|
A|----------------------|
E|----------------------|

Ok, ok, esta es la vesion FULL de Banya si quieren oírla
esta en  si tienen la versión normal no
importa solo escuchen y sabran de donde es cada cosa.
Suggest correction
Give kudos to tab author, rate the tab!
1 2 3 4 5
comments
print report bad tab
guest
You may want to rate the tab now too:
select rating
Wanna post a correction for this tab? Suggest correction