Oops, an error
Loading. Please wait.
115 views 1 this week
no commentswrite comment
1 2 3 4 5
3 more votes to show rating
add to favorites
launch autoscroll
font size
0
reset
how to read this tab
guitar tuner
Autoscroll
slow
fast
+/-
esc
set tempo
stop
Help us to improve Ultimate-Guitar.com Take our survey!
×
en xbox live yess mortal y el gran tlahuicolotzin espero que les guste
e---------------------------------------------------------------
B----2--3--2--2-0-----------------------------------------------
G--4--------2-------------0--2------0--------------------------
D-------------------0---2------4--2---4--2-4----------9---------
A-----------------2--------------------------5---7--------------
E---------------------------------------------------------------


e---------------------------------------------------------------
B---------------------------------------------------------------
G-----------------------------------2---------------------------
D------------------2------4---5--4-------5---4--------2---------
A---------------------------------------------------------------
E---------------------------------------------------------------


e---------------------------------------------------------------
B---------------------------------------------------------------
G---------------------------------------------------------------
D---------------------------------------------------------------
A----7---9---10---12---12-10-9--------------------------------------|(x3)
E-000-000-000--000--000---------------------------------------------|

e----------------------------------------------------------|
B----------------------------------------------------------|
G----------------------------------------------------------|
D----------------------------------------------------------|
A--777--999-10-10-10--12-12-10-9---------------------------|(x2)
E----------------------------------------------------------|

e------------------------------------------------------|
B------------------------------------------------------|
G-----4----6----7----9----9-9--5--4--------------------|
D-----2----4----5----7----7-7--7--7--------------------|(x3)
A------------------------------------------------------|
E-000---000--000--000--000-----------------------------|

e---------------------------------------------------------------
B----2--3--2--2-0-----------------------------------------------
G--4--------2-------------0--2------0---------------------------
D-------------------0---2------4--2---4--2-4----------9-------
A-----------------2--------------------------5---7------------
E-------------------------------------------------------------

o tambien esta esta
------------------------------------------------
------------------------------------------------
------------------------------------------------
-----2-0-------0-2-3-2---2-0-----------0--------
-2-4-----4-------------3---------0-2-3---2-0----
------------------------------------------------

------------------------------12/1--------------
------------------------------------------------
-9-----11-12-14-12-11-12-9----------------------
------------------------------------------------
------------------------------------------------
------------------------------------------------

-------------------------------------------------------------
-------------------------------------------------------------
-------------------------------------------------------------
---------9--9---------11--11-------12--12-----14---14-12--11- x3
---------7--7---------9---9--------10--10-----12---12-10--9--
-0-0-0-0------0-0-0-0--------0-0-0--------0-0----------------


----------------------------------------------------
----------------------------------------------------
----------------------------------------------------
-9-9-9----11-11-11-----12-12-12-----14---14-12--11-- x2
-7-7-7----9--9--9------10-10-10-----12---12-10--9---
----------------------------------------------------
recuerden si tienen xbox live unan a sus amigos a yess mortal
tengo halo reach gears of wars, eyc
e incluyan a otro gran jugador tlahuicolotzin
no se arrepentiran
Suggest correction
Give kudos to tab author, rate the tab!
1 2 3 4 5
comments
print report bad tab
guest
You may want to rate the tab now too:
select rating
Wanna post a correction for this tab? Suggest correction