Oops, an error
Loading. Please wait.

Ilia's Theme Tab

143 views 1 this week
no commentswrite comment
1 2 3 4 5
3 more votes to show rating
add to favorites
launch autoscroll
font size
0
reset
how to read this tab
guitar tuner
×
Best way to learn
"Ilia's Theme"
Autoscroll
slow
fast
+/-
esc
set tempo
stop
Esta transcripcion se la dedico a varias personas.....

A mi hermanita y a mi hijo que siempre me han apoyando en todo,
a mi compañera que espero seamos amigos igual que siempre...
y a mi hermano que se que no va a leer esto pero bueno.


e-------------------8--7--|8--7------8--7----------|
B------------------------8|------8---------8-------|
G-------------------------|------------------------|
D-------------------------|------------------------|
A-------------------------|------------------------|
E-------------------------|------------------------|

e|--------------------------|
B|-------10--8--------------|
G|9--10---------------------|
D|--------------------------|
A|--------------------------|
E|--------------------------|

e-------------------8--7--|8--7------8--7----------|
B------------------------8|------8---------8-------|
G-------------------------|------------------------|
D-------------------------|------------------------|
A-------------------------|------------------------|
E-------------------------|------------------------|

e|--------------------------|
B|--------------------------|
G|-9--9/10--9---------------|
D|-------------10-----------|
A|--------------------------|
E|--------------------------|

e-------------------------|-----------------------------|
B------------------------8|---------10--8---------10--8-|
G-------------------------|--10--9---------10--9--------|
D-----------------9--10---|-----------------------------|
A-------------------------|-----------------------------|
E-------------------------|-----------------------------|

e-------------------------|----7--8--7------10--8-----|
B-------------------------|10-----------10------------|
G--10--9-----9--------------|-------------------------|
D---------7-----------------|-------------------------|
A-------------------------|---------------------------|
E-------------------------|---------------------------|

e-10--12--13/15--10--------|---------------------------|


se puede repetir las veces que quieran.


Disfrutenla....
Suggest correction
Give kudos to tab author, rate the tab!
1 2 3 4 5
comments
print report bad tab
guest
You may want to rate the tab now too:
select rating
Wanna post a correction for this tab? Suggest correction