Oops, an error
Loading. Please wait.

Mach Rider Tab

59 views 1 this week
no commentswrite comment
1 2 3 4 5
3 more votes to show rating
add to favorites
launch autoscroll
font size
0
reset
how to read this tab
guitar tuner
Autoscroll
slow
fast
+/-
esc
set tempo
stop
Help us to improve Ultimate-Guitar.com Take our survey!
×
PUES AQUI LES DEJO MI PRIMERA CONTRIBUCION, ESPERO Y LES GUSTE

NINTENDO FOREVER¡¡¡¡¡¡¡

Tuning:standard


YOU ARE MACH RIDER

e|-------3-3-3---2-2-2---5-5-5---4-4---4-3-3-3-3-6-5--|
B|----------------------------------------------------|
G|----------------------------------------------------|
D|----------------------------------------------------|
A|----------------------------------------------------|
E|----------------------------------------------------|


Main Theme

e|------------------------------------------------3-3--6--6-5-------|
B|-------------------------------------------5-5---------------6-6--|
G|--------5--6-4-5-6-4-5--5-6-4-5-6-4-5--5--------------------------|
D|------------------------------------------------------------------|
A|------------------------------------------------------------------|
E|------------------------------------------------------------------|

e|-----------------------------------4-8-7-7-7-6-6-6-5-----|
B|--------------------------------6---------------------6--|
G|-------5--6-4-5-6-4-5--5-6-4-5---------------------------|
D|---------------------------------------------------------|
A|---------------------------------------------------------|
E|---------------------------------------------------------|

e|-----------------------16----20--20--20---|
B|-------------------17---------------------|
G|----------13---17-------------------------|  (x3)
D|------14----------------------------------|
A|--15--------------------------------------|
E|------------------------------------------|


e|---20-18-----20-18------20--20|
B|---------17--------17---------|
G|------------------------------|
D|------------------------------|
A|------------------------------|
E|------------------------------|


DUDAS,QUEJAS,SUGERENCIAS,NOTAS SUICIDAS MADENLOS A MI CORREO ¡¡¡
Suggest correction
Give kudos to tab author, rate the tab!
1 2 3 4 5
comments
print report bad tab
guest
You may want to rate the tab now too:
select rating
Wanna post a correction for this tab? Suggest correction