Oops, an error
Loading. Please wait.

Mario Bros Tab

version 2
version 2

Whole song

3,837 views 9 this week
no commentswrite comment
1 2 3 4 5
x 5
add to favorites
×
Save as Personal and add changes to this tab that will be seen only by you. Learn more ›
×
You can save this tab as Personal to edit and correct it or add notes. All changes will be seen only by you. Learn more »
save as personal
new!
launch autoscroll
font size
0
reset
how to read this tab
guitar tuner
Autoscroll
slow
fast
+/-
esc
set tempo
stop
noté que las otras estan un poco dificiles
asi que yo se las pongo mas facil

--0-0-0---0-3-----------
--------1---------------
----------------0-------
------------------------
------------------------
------------------------ x1

|------------------------------0-3-5-1-3-0------------------|
|-1-----------1-0---------------------------1-3-0-----------|
|----0-----2-------2-------0--------------------------------|
|-------2---------------------------------------------------|
|-----------------------------------------------------------|
|-----------------------------------------------------------| x2

|-3-2-1--------------------3-2-1------8-8-8-----------------
|--------4-5-----1---1-3---------4-5------------------------
|------------1-2---2----------------------------------------
|-----------------------------------------------------------
|-----------------------------------------------------------
|-----------------------------------------------------------

 -3-2-1--------------------------------------|
 -------4-5-----1---1-3-4-3-1----------------|
 -----------1-2---2-----------0-0------------|
 --------------------------------------------|
 --------------------------------------------|
 --------------------------------------------| x2

-------------0--------------------0-----------
--1-1-1--1-3---1-------1-1-1--1-3-------------
-----------------2-0--------------------------
----------------------------------------------
----------------------------------------------
----------------------------------------------

-------------0----------0-0-0---0-3-----------
--1-1-1--1-3---1--------------1---------------
-----------------2-0--------------------------
----------------------------------------------
----------------------------------------------
----------------------------------------------


|-------------------0-3-5-1-3-0--------------|
|--1-------1-0------------------1-3-0--------|
|----0---2-----2-0---------------------------|
|------2-------------------------------------|
|--------------------------------------------|
|--------------------------------------------| x2


|-0---------1-1--5-5-5-3-1-1------------------|
|---1------------------------1----------------|
|-----0-1-2--------------------2-0------------|
|---------------------------------------------|
|---------------------------------------------|
|---------------------------------------------| x4

------------0-------------------0-------------
-1-1-1--1-3---1------1-1-1--1-3---------------
----------------2-0---------------------------
----------------------------------------------
----------------------------------------------
----------------------------------------------

------------0---------0-0-0---0-3-------------
-1-1-1--1-3---1-------------1-----------------
----------------2-0---------------------------
----------------------------------------------
----------------------------------------------
----------------------------------------------

-0---------1-1---5-5-5-3-1-1------------------
---1-------------------------1----------------
-----0-1-2---------------------2-0------------
----------------------------------------------
----------------------------------------------
----------------------------------------------

aqui es cuando se mete al tunel
---------------------------------------------
---1------------------1----------------------
---------2-----3------------2----3-----------
---------------------------------------------
-3-----0----1-------3-----0----1-------------
---------------------------------------------


---1-------------------1---------------------
---------3-----4------------3-----4----------
---------------------------------------------
-3-----0-----1------3-----0------1-----------
---------------------------------------------
---------------------------------------------


----------------------5-4--------------------
------------------5-4------------------------
--------------5-4----------------------------
-7-6------5-4--------------------------------
------5-4------------------------------------
---------------------------------------------


aqui es cuando agarra la estrella


---------------------------------------------
-1-1-1-1-1-1-1-1---0-0-0-0-0-0-0-0-----------
-2-2-2-2-2-2-2-2---0-0-0-0-0-0-0-0-----------
---------------------------------------------
---------------------------------------------
---------------------------------------------

aqui es cuando entra al castillo

---------------------------------------------
-3---2---1---2---3---4---3---2---1---2-------
---0---0---0---0---0---0---0---0---0---0-----
---------------------------------------------
---------------------------------------------
---------------------------------------------x3

---------------------------------------------
-2---1---0---1---2---3---2---1---0---1-------
---4---4---4---4---4---4---4---4---4---4-----
---------------------------------------------
---------------------------------------------
---------------------------------------------x3

---------------------------------------------
-6---5---4---5---6---7---6---5---4---5-------
---4---4---4---4---4---4---4---4---4---4-----
---------------------------------------------
---------------------------------------------
---------------------------------------------
y de regreso

esta parte es cuando gana
-----0-3-0-------4-1-------6---6-6-6-8-------
----1-----------1---------6------------------
---0-----------1---------6-------------------
--2-----------1---------8--------------------
-3-----------3---------8---------------------
------------4---------6----------------------

ojala les guste atte carlos padilla
Suggest correction
comments
print report bad tab
guest
Wanna post a correction for this tab? Suggest correction