Oops, an error
Loading. Please wait.

Mario Bros Tab

version 4
version 4

Whole song

785 views 1 this week
no commentswrite comment
1 2 3 4 5
1 last vote to show rating
add to favorites
launch autoscroll
font size
0
reset
how to read this tab
guitar tuner
×
Best way to learn
"Mario Bros"
Autoscroll
slow
fast
+/-
esc
set tempo
stop
noté que las otras estan un poco dificiles
asi que yo se las pongo mas facil

--12-12-12----12---15---
-----------13-----------
----------------------12
------------------------
------------------------
------------------------

|-8-----5-7-6-5---0-3-5-1-3-0---------3-2-1----------------
|---8-5-----------------------1-3-0---------4-5-----1---1-3
|----------------0--------------------------------2---2----
|-----------------------------------------------3----------
|-----------------------------------3----------------------
|----------------------------------------------------------

|-3-2-1-----8-8-8---3-2-1-----------------------------------
|-------4-5---------------4-5------1---1-3-4----------------
|--------------------------------2---2-------7--------------
|------------------------------3---------------10--5-5-2----
|-----------------------------------------------------------
|-----------------------------------------------------------

 ------------0-------------------0------------0-------12-12-12---12-15--
 --------------1--------------------------------1--------------13-------
 -5-5--5--5-7----2-0--5-5--5-5-7----5-5--5-5-7----2-0-----------------12
 --------6------------------6-------------6-----------------------------
 -----------------------------------------------------------------------
 -----------------------------------------------------------------------

-0------1-1--5-5-5-3-1-0----0------1-1--1-1-1-0-----
--1---------0-----------1----1---------0-------3-1--
---0-1-2---2-------------2-0--0-1-2---2-------------
----------------------------------------------------
----------------------------------------------------
----------------------------------------------------

aqui es cuando se mete al tunel
---------------------------------------------
---1------------------1----------------------
---------2-----3------------2----3-----------
---------------------------------------------
-3-----0----1-------3-----0----1-------------
---------------------------------------------


---1-------------------1---------------------
---------3-----4------------3-----4----------
---------------------------------------------
-3-----0-----1------3-----0------1-----------
---------------------------------------------
---------------------------------------------


---------------------2-1-0-5-4-3---------
-4-3-2-1--4-3-----2-1-----------3--2-1-0-
--------------1-0----------------3-------
-----------------------------------------
-----------------------------------------
-----------------------------------------


aqui es cuando se mete en la zona de agua


-0------1-0-----------------1-0--0---0--2-3-2-1-2-------------1-0
------4---------0-1-3-4---0-------2---2----------2-2-3-4--4--0---
----0--------0-2--------0----------3---2----------2-----0---0----
-----------------------------------------------------------------
-----------------------------------------------------------------
-----------------------------------------------------------------

aqui es cuando vuelve a el principio y se empiesa a acabar el tiempo

-12-12-12--12-15---0------9-9-9-10-10-10-11-11-11
---------13---------1----7-----8--------9--------
----------------12---2-0-------------------------
-------------------------------------------------
-------------------------------------------------
-------------------------------------------------

esta parte es cuando baja del tubo del final y termina el juego
(en la parte en que baja del tubo es lento el deslisaje que es de 3/14)

-3/14------------3----------------4-----------------6--6-6-6-8--
---------------4---3------------5---4-------------6-------------
-------------5----------------5-----------------7---------------
-----------6----------------6-----------------8-----------------
---------7----------------7-----------------9-------------------
------3-8--------------4-8-------------6-10---------------------

ojala les guste atte julian
Suggest correction
Give kudos to tab author, rate the tab!
1 2 3 4 5
comments
print report bad tab
guest
You may want to rate the tab now too:
select rating
Wanna post a correction for this tab? Suggest correction