Oops, an error
Loading. Please wait.

Mario Bros Bass Tab

686 views 1 this week
no commentswrite comment
1 2 3 4 5
2 more votes to show rating
add to favorites
launch autoscroll
font size
0
reset
guitar tuner
×
Best way to learn
"Mario Bros"
Autoscroll
slow
fast
+/-
esc
set tempo
stop
Intro         Parte I
G|-----------|-------------------|------9-10-7-9-----------|
D|---------5~|-5--2-----3--5-4-3-|---10---------10--7-9----|
A|-55-5-55---|-------3-----------|--7------------------10--|
E|-----------|-------------------|-------------------------|

Parte II
G|-------5-----555---|--------5---------|-------5-----555---|----1-3-5-------|
D|----5-----3------3-|---2--5--------5p-|----5-----3------3-|-----------55---|
A|-3-----------------|-3----------------|-3-----------------|-3------------3-|
E|-------------------|------------------|-------------------|----------------|

Parte III
G|----------------|----------------|----------------|
D|-------6-5------|-------6-5------|-------6-5------|
A|----6-------3---|----6-------3---|----6-------3---|
E|-4------------3-|-4------------3-|-4------------3-|

Parte IV
G|---------5-------5-5---|-------0-4-0-0-5-5-0-|---------5-------5-5---|
D|----4-5-----3-3------3-|-0--3----------------|----4-5-----3-3------3-|
A|-3---------------------|---------------------|-3---------------------|
E|-----------------------|---------------------|-----------------------|

--0-----0-0--2--4-5------|
---------------------5---|
-----------------------3-|
-------------------------|


ORDEN:
Intro
Parte I (x2)
Parte II (x2)
Parte III
Intro
Parte I (x2)
Parte IV (x2)
Parte III
Intro
Parte IV (x2)

Y así comienza todo de nuevo en el mismo orden durante los 300 segundos del
juego (y los últimos 100 más rápido).
Suggest correction
Give kudos to tab author, rate the tab!
1 2 3 4 5
comments
print report bad tab
guest
You may want to rate the tab now too:
select rating
Wanna post a correction for this tab? Suggest correction