Oops, an error
Loading. Please wait.

Mario Bros - Bajo El Agua Tab

version 1
version 1

Whole song

226 views 6 this week
no commentswrite comment
1 2 3 4 5
3 more votes to show rating
add to favorites
launch autoscroll
font size
0
reset
how to read this tab
guitar tuner
Autoscroll
slow
fast
+/-
esc
set tempo
stop
Help us to improve Ultimate-Guitar.com Take our survey!
×
SUPER MARIO BROS. UNDERWATER

e |------------|------------|------------|------------|
B |------------|------------|0-0-0---0---|0-----------|
G |------------|0---2---3---|------------|--------0---|
D |0---2---4---|------------|0-0-0---2---|3-----------|
A |----4---3---|2---3---4---|------------|------------|
E |------------|------------|--------3---|3-----------|

e |0-----------|------------|0-----------|------------|
B |--------1---|4-----------|--------1---|------0h1h3-|
G |0---0-------|----0---4---|0---0-------|--0h2-------|
D |------------|4-----------|------------|------------|
A |3-----------|2-----------|3-----------|3-----------|
E |------------|------------|------------|------------|

e |0-----------|--------1---|0-----------|------------|
B |--------1---|4-------0---|--------1---|--------1---|
G |0---0-------|----0---2---|0---0-------|----0-----0-|
D |------------|4-----------|------------|2-----------|
A |3-----------|2-----------|3-----------|------------|
E |------------|------------|------------|------------|

e |1-----------|0-----------|1-----------|------------|
B |3-------0---|2-----------|3-------0---|------0h1h2-|
G |----0-------|--------3---|----0-------|--0h2-------|
D |0-----------|----4-------|0-----------|0-----------|
A |------------|4-----------|------------|------------|
E |------------|------------|------------|------------|

e |1-----------|--------1---|0-----------|------------|
B |3-------0---|0-------0---|--------1---|--------1---|
G |----0-------|0---0---2---|0---0-------|----0-----0-|
D |0-----------|------------|------------|------------|
A |------------|2-----------|3-----------|------------|
E |------------|------------|------------|3-----------|

e |3-----------|3-----------|3-----------|3---5-----3-|
B |5-------5---|3-------3---|2-------2---|------------|
G |------------|----0-------|----0-------|0-----------|
D |----5-------|------------|------------|------------|
A |3-----------|2-----------|1-----------|4-----------|
E |------------|------------|------------|------------|

e |1-------1---|1-------1---|1-------1---|1---3-----1-|
B |3-----------|2-----------|1-----------|------------|
G |----2-------|----2-------|----2-------|0-----------|
D |0-----------|------------|------------|------------|
A |------------|4-----------|3-----------|2-----------|
E |------------|------------|------------|------------|

e |0-----------|--------1---|0-0-0-------|------------|
B |1-----------|----0---0---|0-0-0-----0-|1-----------|
G |--------0---|2---0-------|------------|------------|
D |----2-------|3-----------|3-3-3-----3-|2-----------|
A |3-----------|------------|----------2-|3-----------|
E |------------|3-----------|------------|------------|

mi correo: juanda0612@
Suggest correction
Give kudos to tab author, rate the tab!
1 2 3 4 5
comments
print report bad tab
guest
You may want to rate the tab now too:
select rating
Wanna post a correction for this tab? Suggest correction