Oops, an error
Loading. Please wait.

Mario Bros - Bajo El Agua Tab

version 2
version 2

Whole song

283 views 3 this week
no commentswrite comment
1 2 3 4 5
3 more votes to show rating
add to favorites
launch autoscroll
font size
0
reset
how to read this tab
guitar tuner
×
Best way to learn
"Mario Bros - Bajo El Agua"
Autoscroll
slow
fast
+/-
esc
set tempo
stop
Este tema es sencillimo.

Ahora a nadar XD


e|---------------------------------------|
B|------7--8--10--11-?12--12--12--12--12-|
G|-7--9----------------------------------|
D|---------------------------------------|
A|---------------------------------------|
E|---------------------------------------|

e|??--12?--11---12--------------------12---11---13-12-----|
B|-------------------------12-13-15-----------------------|
G|-12-12---11---12?---12h14-----------12---11---13?12-----|
D|--------------------------------------------------------|
A|--------------------------------------------------------|
E|--------------------------------------------------------|

e|?--10----9----10----------7-8-9?10---------13-12--------|
B|-8-------------------8-10-------------8-----------------|
G|?--10----9----10----------------11---------14-12--------|
D|--------------------------------------9-----------------|
A|--------------------------------------------------------|
E|--------------------------------------------------------|

e|?--15---15---15---15/17--15-13---13---13---13/15?-13-12-|
B|?--17---15---14-------------15---13---12----------------|
G|12------------------------------------------------------|
D|--------------------------------------------------------|
A|--------------------------------------------------------|
E|--------------------------------------------------------|

e|------13-12-12-12--------------|
B|-8-10--------------12-13-------|
G|-------------------------------|
D|-------------------------------|
A|-------------------------------|
E|-------------------------------|
Suggest correction
Give kudos to tab author, rate the tab!
1 2 3 4 5
comments
print report bad tab
guest
You may want to rate the tab now too:
select rating
Wanna post a correction for this tab? Suggest correction