Oops, an error
Loading. Please wait.

Mario Bros - Segundo Nivel Tab

version 1
version 1

Whole song

119 views 1 this week
no commentswrite comment
1 2 3 4 5
3 more votes to show rating
add to favorites
launch autoscroll
font size
0
reset
how to read this tab
guitar tuner
Autoscroll
slow
fast
+/-
esc
set tempo
stop
Help us to improve Ultimate-Guitar.com Take our survey!
×
E||------------------------------------------------------|
B||------------------------------------------------------|
G||------------------------------------------------------|
D||--------------------------3-3-0-0-1-1---3-3-0-0-1-1---|
A||3-3-0-0-1-1---3-3-0-0-1-1-----------------------------|
E||------------------------------------------------------|

E||-------------------------------------------------||
B||-------------------------------------------------||
G||---------------------321-------------------------||
D||------------------432---1-0----------------------||
A||-6-5-3-6-5----4-3----------1-0-------------------||
E||----------4-3------------------4-3---------------||

excelente no lo creen
Suggest correction
Give kudos to tab author, rate the tab!
1 2 3 4 5
comments
print report bad tab
guest
You may want to rate the tab now too:
select rating
Wanna post a correction for this tab? Suggest correction