Oops, an error
Loading. Please wait.

Mario Bros - Segundo Nivel Tab

version 2
version 2

Whole song

266 views 1 this week
no commentswrite comment
1 2 3 4 5
3 more votes to show rating
add to favorites
launch autoscroll
font size
0
reset
how to read this tab
guitar tuner
Autoscroll
slow
fast
+/-
esc
set tempo
stop
G|-------------------------------|
D|---10---7---8-------10---7---8-|
A|-------------------------------|
E|-8----5---6-------8----5---6---|

G|---10---7---8-------10---7---8-|
D|-------------------------------|
A|-8----5---6-------8----5---6---|
E|-------------------------------|

G|-------------------------------3-2-1---------------|
D|------------------------3-4-2--------1--1----------|
A|-6-5-4-3--6-5------4-3---------------------2-1-0---|
E|---------------4-3-------------------------------4-|


Dudas con temas de anime o videojuegos:
saviour_king@
Suggest correction
Give kudos to tab author, rate the tab!
1 2 3 4 5
comments
print report bad tab
guest
Wanna post a correction for this tab? Suggest correction