Oops, an error
Loading. Please wait.

Mario Bros 1 Y 2 Nivel Tab

71 views 1 this week
no commentswrite comment
1 2 3 4 5
3 more votes to show rating
add to favorites
launch autoscroll
font size
0
reset
how to read this tab
guitar tuner
×
Best way to learn
"Mario Bros 1 Y 2 Nivel"
Autoscroll
slow
fast
+/-
esc
set tempo
stop
Hola esta es mi primera cancion y pondre 3 canciones 1er nivel y 2do nivel
y cuando tienela estrella son muy faciles en unas 2 hrs maximo
les sale todo espero les guste

                           1er nivel
--0-0-0---0-3-----------
--------1---------------
----------------0-------
------------------------
------------------------
------------------------ x1

|------------------------------0-3-5-1-3-0------------------|
|-1-----------0---------------------------1-3-0-------------|
|----0-----2-------2--1-----0-------------------------------|
|-------2---------------------------------------------------|
|-----------------------------------------------------------|
|-----------------------------------------------------------| x2

|-3-2-1--------------------3-2-1------8-8-8-----------------
|--------4-5-----1---1-3---------4-5------------------------
|------------1-2---2----------------------------------------
|-----------------------------------------------------------
|-----------------------------------------------------------
|-----------------------------------------------------------

 -3-2-1--------------------------------------|
 -------4-5-----1---1-3-4-3-1----------------|
 -----------1-2---2-----------0-0------------|
 --------------------------------------------|
 --------------------------------------------|
 --------------------------------------------| x2

-------------0-------------------------0----------
--1-1-1--3----------------1-1-1---3---------------
-----------------2-0--------------------------
----------------------------------------------
----------------------------------------------
----------------------------------------------

-------------0----------0-0-0---0-3-----------
--1-1-1---3-------------------1---------------
-----------------2-0--------------------------
----------------------------------------------
----------------------------------------------
----------------------------------------------


|--------------------0-3-5-1-3-0--------------|
|--1-------0------------------1-3-0--------|
|----0---2-----3-2-0--------------------------|
|------2-------------------------------------|
|--------------------------------------------|
|--------------------------------------------| x2


|-0---------1-1--5-5-5-3-1-1------------------|
|---1------------------------1----------------|
|-----0-1-2--------------------2-0------------|
|---------------------------------------------|
|---------------------------------------------|
|---------------------------------------------| x4

------------0-------------------0-------------
-1-1-1----3----------1-1-1----3---------------
----------------2-0---------------------------
----------------------------------------------
----------------------------------------------
----------------------------------------------

------------0---------0-0-0---0-3-------------
-1-1-1----3-----------------1-----------------
----------------2-0---------------------------
----------------------------------------------
----------------------------------------------
----------------------------------------------

-0---------1-1---5-5-5-3-1-1------------------
---1-------------------------1----------------
-----0-1-2---------------------2-0------------
----------------------------------------------
----------------------------------------------
----------------------------------------------


                        2do nivel


E||------------------------------------------------------|
B||------------------------------------------------------|
G||------------------------------------------------------|
D||--------------------------3-3-0-0-1-1---3-3-0-0-1-1---|
A||3-3-0-0-1-1---3-3-0-0-1-1-----------------------------|
E||------------------------------------------------------|

E||-------------------------------------------------||
B||-------------------------------------------------||
G||---------------------3/1-------------------------||
D||------------------4/2---1-0----------------------||
A||-6-5-3-6-5----4-3----------1-0-------------------||
E||----------4-3------------------4-3---------------||


                     Estrellita


---------------------------------------------
-1-1-1-1-1-1-1-1---0-0-0-0-0-0-0-0-----------
-2-2-2-2-2-2-2-2---0-0-0-0-0-0-0-0-----------
---------------------------------------------
---------------------------------------------
---------------------------------------------


espero les guste
cualquier duda aqui esta mi face
Suggest correction
Give kudos to tab author, rate the tab!
1 2 3 4 5
comments
print report bad tab
guest
You may want to rate the tab now too:
select rating
Wanna post a correction for this tab? Suggest correction