Oops, an error
Loading. Please wait.

Mario World Intro Tab

94 views 1 this week
no commentswrite comment
1 2 3 4 5
2 more votes to show rating
add to favorites
launch autoscroll
font size
0
reset
how to read this tab
guitar tuner
×
Best way to learn
"Mario World Intro"
Autoscroll
slow
fast
+/-
esc
set tempo
stop
Esta es mi primera colaboración... Empecemos XD XD


e-------------------------------------------------------------------
B---------------------------1---------------------------------------
G--2--------------------------2-0-----2----------------------3-2-0--
D------3-----0-3-3--0---3-3---------------3-----0-3-3--0---3-------3
A----------3----------3-----------------------3----------3----------
E------------------------------------------------------------------- x2

e--------------------------------------------------------------
B-----------------------------------------------------1--------
G--2-----2-----1-----1---0----------2-----2-----1--------------
D----3-----3-----3--------------------3-----3-----3------------
A------3-----------3--------------------3-----------3----------
E--------------------------------------------------------------

e------------------------------
B------------------------------
G--2----------------0-2--------
D------3-----0-3-3------3---0-3
A----------3--------------3----
E------------------------------

e-----------------------------------------
B----1-3-1-3-1----------------------------
G----------------3-2-0--------------------
D-----------------------3-----------------
A--3--------------------------------------
E-----------------------------------------

e-----------------------------------------------------------------
B------------------------------------------------1-3--------------
G--------0-2-1-0-------------0-2-----------0-2-3---------------0--
D--3-0-3---------3-----3-0-3---------3-0-3---------------3-0-3---3
A-----------------------------------------------------------------
E-----------------------------------------------------------------

Y así sucesivamente

Cualquier duda estoy disponible... Adios XD XD XD
Suggest correction
Give kudos to tab author, rate the tab!
1 2 3 4 5
comments
print report bad tab
guest
You may want to rate the tab now too:
select rating
Wanna post a correction for this tab? Suggest correction