Oops, an error
Loading. Please wait.

Mortal Kombat Tab

727 views 12 this week
no commentswrite comment
1 2 3 4 5
x 3
add to favorites
launch autoscroll
font size
0
reset
how to read this tab
guitar tuner
Autoscroll
slow
fast
+/-
esc
set tempo
stop
Help us to improve Ultimate-Guitar.com Take our survey!
×
Bueno este es el tema de Mortal Kombat que todos conocemos.


e|--------------0---------0---3---0----------------------------------------|
B|------1---3-----3---1-1---1---1---1------0---1---3-1-----------1---1-0---|
G|--2-2---2---2------------------------0-0---0---0-----------2-------------| x2
D|-------------------------------------------------------3-3---3---3-------|
A|-------------------------------------------------------------------------|
E|-------------------------------------------------------------------------|

Mortal Kombat!!!!

e|-------------------------------------------------------------------------|
B|-------------------------------------------------------------------------|
G|-2--2--2--2--0-5--2--2--2--2--0----2--2--2--2--0-5--2--2--2--22-22-------| X3
D|-2--2--2--2--0-5--2--2--2--2--0-2--2--2--2--2--0-5--2--2--2--22-22-------|
A|--------------------------------2----------------------------------------|
E|-------------------------------------------------------------------------|


e|-------------------------------------------------------------------------|
B|----5---------------------------5---------------------------5------------|
G|--2----2-5--2-3--5-3---3p2p0--2----2-5--2-3--5-3---3p2p0--2----2-5-------|
D|-------------------------------------------------------------------------|
A|-------------------------------------------------------------------------|
E|-------------------------------------------------------------------------|

e|-------------------------------------------------------------------------|
B|------------------5------------------------------------------------------|
G|---5-3---3p2p0--2----2-5--0-0--0-2-2-------------------------------------|
D|-------------------------------------------------------------------------|
A|-------------------------------------------------------------------------|
E|-------------------------------------------------------------------------|

Se toca todo en la posición del primer DO que tiene cuerdas al aire.
Suggest correction
Give kudos to tab author, rate the tab!
1 2 3 4 5
comments
print report bad tab
guest
You may want to rate the tab now too:
select rating
Wanna post a correction for this tab? Suggest correction