Oops, an error
Loading. Please wait.

Pokemón - Centro Pokemón Tab

190 views 1 this week
no commentswrite comment
1 2 3 4 5
3 more votes to show rating
add to favorites
launch autoscroll
font size
0
reset
how to read this tab
guitar tuner
×
Best way to learn
"Pokemón - Centro Pokemón"
Autoscroll
slow
fast
+/-
esc
set tempo
stop
Para todos los nostalgicos este es la musiquita que sonaba en los viejos
pokemon de color y gameboy cuando ingresaban al centro pokemon para
curar a los bichos esos XD...


|-----------17---15---14-----------------------|
|--15----15---------------17---14--------------|
|-----14-----------------------------14--------|
|------------------------------------------14--|
|----------------------------------------------|
|----------------------------------------------|

|----------14---12-----------14----------------|
|-14----14------------14--15-------------------|
|----14------------------------------14--------|
|------------------------------------------14--|
|----------------------------------------------|
|----------------------------------------------|

|-----------17---15---14-----------------------|
|--15----15---------------17---14--------------|
|-----14-----------------------------14--------|
|------------------------------------------14--|
|----------------------------------------------|
|----------------------------------------------|

|----------14---12-----------------------------|
|-14----14------------14--15-------------------|
|----14----------------------------------------|
|--------------------------------12----14------|
|----------------------------------------------|
|----------------------------------------------|


|-14--------17-----------15-17-15-14-12--------|
|----------------------------------------------|
|----------------------------------------------|
|----------------------------------------------|
|----------------------------------------------|
|----------------------------------------------|

|------------------14-15-14-12--------------|
|-14-----17--------------------15-----------|
|-------------------------------------------|
|-------------------------------------------|
|-------------------------------------------|
|-------------------------------------------|

|-14----------17--------15-14-15-17-19----------|
|-----------------------------------------------|
|-----------------------------------------------|
|-----------------------------------------------|
|-----------------------------------------------|
|-----------------------------------------------|

|-17---15-14-15--------14-15-14-12--------------|
|----------------------------------15-----------|
|-----------------------------------------------|
|-----------------------------------------------|
|-----------------------------------------------|
|-----------------------------------------------|

Y se repite desde arriba... hasta que sales del centro pokemon...
Bueno espero que les guste y den harto jugo con este temita...
*SOLO LO PUEDEN TOCAR LAS PERSONAS QUE JUGARON ESTOS JUEGOS EN LA
EPOCA DEL 90 Y PRINCIPIOS DEL 2000 ¬¬*     XD
Suggest correction
Give kudos to tab author, rate the tab!
1 2 3 4 5
comments
print report bad tab
guest
You may want to rate the tab now too:
select rating
Wanna post a correction for this tab? Suggest correction