Oops, an error
Loading. Please wait.

Promise Reprise Tab

512 views 3 this week
no commentswrite comment
1 2 3 4 5
2 more votes to show rating
add to favorites
×
Save as Personal and add changes to this tab that will be seen only by you. Learn more ›
×
You can save this tab as Personal to edit and correct it or add notes. All changes will be seen only by you. Learn more »
save as personal
new!
launch autoscroll
font size
0
reset
how to read this tab
guitar tuner
Autoscroll
slow
fast
+/-
esc
set tempo
stop
Bueno aqui esta uno de los temas del juego SILENT HILL ,
este tab me dio mucho trabajo sacarlo, espero que lo disfruten


e|----------------------------------------------------
B|-----1-------1-------1-------0----------------------
G|---2---2---2---2---2---2---1---1--------------------
D|-2-------2-------3-------2--------------------------
A|----------------------------------------------------
E|----------------------------------------------------

 e|----12-15-----------------
B|-10-------13----17-13-----
G|-------------14-------12--
D|--------------------------
A|--------------------------
E|--------------------------

e|--------------------------------------------------
B|-8-8-8-6-5-----5-------8-8-8-10-8-13-13-12-8-10---
G|-----------7-7---7-5-5----------------------------
D|--------------------------------------------------
A|--------------------------------------------------
E|--------------------------------------------------

e|------------------------------------------------------
B|-8-8-8-6-5-----5-------8-8-8-10-8-13-13-12-13-12-10---
G|-----------7-7---7-5-5--------------------------------
D|------------------------------------------------------
A|------------------------------------------------------
E|------------------------------------------------------

e|------------------------------------------------------
B|-12-13-15-13-12-13-12-10-12-13-10-12-13-15-13-15-17---
G|------------------------------------------------------
D|------------------------------------------------------
A|------------------------------------------------------
E|------------------------------------------------------

e|---------------------------------------------------------------
B|-13-12-10-12-13-15-13-12-13-12-10-12-13-10-12-13-15-13-15-17---
G|---------------------------------------------------------------
D|---------------------------------------------------------------
A|---------------------------------------------------------------
E|---------------------------------------------------------------

( se repite toda la parte desde el intro )


     Em    Em    Em          C

e|---7-----7------7----------3---
B|---8-----8------8------8---5---     (4x)
G|---9-----9------9----------5---
D|---9-----9------9---9------5---
A|---7-----7------7----------3---
E|---7-----7------7----------3---

e|-------------------------------------------
B|-0-5-7-8---0-5-7-8---0-5-7-8---0-5-7-8-7---     (2x)
G|-------------------------------------------
D|-------------------------------------------
A|-------------------------------------------
E|-------------------------------------------

e|----------------------------------------------------
B|-7-8-10-12---7-8-10-12---7-8-10-12---7-8-10-12-10---      (2x)
G|----------------------------------------------------
D|----------------------------------------------------
A|----------------------------------------------------
E|----------------------------------------------------

Em   Em   Em   (49, 28)  C    (se repite 4x)
                B , G
Suggest correction
Give kudos to tab author, rate the tab!
1 2 3 4 5
comments
print report bad tab
guest
Wanna post a correction for this tab? Suggest correction