Oops, an error
Loading. Please wait.

Shop - Zelda Ocarina Of Time Tab

334 views 3 this week
no commentswrite comment
1 2 3 4 5
3 more votes to show rating
add to favorites
launch autoscroll
font size
0
reset
how to read this tab
guitar tuner
×
Best way to learn
"Shop - Zelda Ocarina Of Time"
Autoscroll
slow
fast
+/-
esc
set tempo
stop
Aqui les traigo el tab de Zelda cuando entras a una tienda
a comprar algun Item , es rapido el ritmo asi q les deseo
suerte..

Se la dedico a mi hermana Laura P.
a quien le encanta esta cancion


 e:-3-3---1-3-0-----------------
 B:-----3-------3-1-0---0-------
 G:--------------------1---0----
 D:-----------------------------
 A:-----------------------------
 E:-----------------------------


 e:-3--3-3-0-0---3-----0-0-3-3-2--2-2-0-0-----
 B:------------3---3-3----------------------3-
 G:-------------------------------------------
 D:-------------------------------------------
 A:-------------------------------------------
 E:-------------------------------------------

 e:---0-0-1-1-2--2-2----3------0-2-3--3-3-3-3-3
 B:-3-----------------3----3-3-----------------
 G:--------------------------------------------
 D:--------------------------------------------
 A:--------------------------------------------
 E:--------------------------------------------


 e:---0-1-2-0------3-3-3-1-0---3-----0-2-3-3-3-3-3-3--
 B:-3---------3--3-----------3---3-3------------------
 G:---------------------------------------------------
 D:---------------------------------------------------
 A:---------------------------------------------------
 E:---------------------------------------------------

 NOTA: cuando se haga esto en el tab (--) es q hay un espacio
       de tiempo ok.
Suggest correction
Give kudos to tab author, rate the tab!
1 2 3 4 5
comments
print report bad tab
guest
You may want to rate the tab now too:
select rating
Wanna post a correction for this tab? Suggest correction