Oops, an error
Loading. Please wait.

Terminal Show - Silent Hill 5 Tab

109 views 1 this week
1 commentread comment
1 2 3 4 5
2 more votes to show rating
add to favorites
launch autoscroll
font size
0
reset
how to read this tab
guitar tuner
×
Best way to learn
"Terminal Show - Silent Hill 5"
Autoscroll
slow
fast
+/-
esc
set tempo
stop
 Hola a todos, aqui les dejo una vez mas otra tablatura del
 Original Soundtrack de este buen juego, este tab fue sacado por mi
 asi que no lo encontraran en otra parte, que lo disfruten. de piano
 a guitarra

NOTA: Si escuchan la melodia veran que ademas del piano
      hay un sonido de fondo, los acordes hacen ese dicho sonido

suerte.

SILENT HILL 5: HOMECOMING - THE TERMINAL SHOW

  Cm
  e:-------------------|
  B:-------------------|
  G:------0------------| X3
  D:---2----4-0--------|
  A:-------------2-----|
  E:-0-----------------|
   D#
  e:-------3-2-------|
  B:------------3-0--|
  G:-----------------| X3
  D:---2-------------|
  A:-----------------|
  E:-0---------------|
  D#                   Cm
  e:-------3-2--------5-2|
  B:------------3-0-3----|
  G:---------------------|
  D:---2-----------------|
  A:---------------------|
  E:-0-------------------|

  e:-------------------------------------|
  B:---3---3----3-----3-----3---3--5--3--|
  G:-----0---0-----0----0----------------|
  D:---2---2----2-----2---5----5--5------|
  A:-------------------------------------|
  E:-------------------------------------|
Se repite desde el comienzo y luego se marcan estos acordes
con un rasgueo de erriba hacia abajo cada uno

Cm Cm Bbm

 Creo que esta mas que claro. -= un saludo al equipo La cuerda =-
Suggest correction
Give kudos to tab author, rate the tab!
1 2 3 4 5
comments
print report bad tab
1 comment total.
0 reply
breathnac 56 Jan 01, 2016 08:12 AM

The notes are incorrect. Even if the author meant for the song to be played in a different key the structure of the tab is incomplete and fundamentally lacking. This tab needs ALOT of work.

guest
You may want to rate the tab now too:
select rating
Wanna post a correction for this tab? Suggest correction