Oops, an error
Loading. Please wait.
2,047 views 12 this week
no commentswrite comment
1 2 3 4 5
x 6
add to favorites
launch autoscroll
font size
0
reset
how to read this tab
guitar tuner
×
Best way to learn
"Tetris"
Autoscroll
slow
fast
+/-
esc
set tempo
stop
Parte 1
e|--0-----------------0-------------0--------|
B|----0-1-3-1-0-----1---3-1-0-0-1-3---1------|
G|--------------2-2---------------------2-2--|
D|-------------------------------------------|
A|-------------------------------------------|
E|-------------------------------------------|

e|----1-5-3-1-0---0-------------0------------|
B|--3-----------1---3-1-0-0-1-3---1----------|
G|----------------------------------2-2------|
D|-------------------------------------------|
A|-------------------------------------------|
E|-------------------------------------------|

e|--0-----------------0-------------0--------|
B|----0-1-3-1-0-----1---3-1-0-0-1-3---1------|
G|--------------2-2---------------------2-2--|
D|-------------------------------------------|
A|-------------------------------------------|
E|-------------------------------------------|

parte 2
e|--0--------------0---------0-5-4-----------|
B|----1-3-0-1----0---1-3-0-1-----------------|
G|-----------2-1-----------------------------|
D|-------------------------------------------|
A|-------------------------------------------|
E|-------------------------------------------|

e|----1-5-3-1-0---0-------------0------------|
B|--3-----------1---3-1-0-0-1-3---1----------|
G|----------------------------------2-2------|
D|-------------------------------------------|
A|-------------------------------------------|
E|-------------------------------------------|

e|--0--------------0---------0-5-4-----------|
B|----1-3-0-1----0---1-3-0-1-----------------|
G|-----------2-1-----------------------------|
D|-------------------------------------------|
A|-------------------------------------------|
E|-------------------------------------------|

gracias!!! espero que les sirva
Suggest correction
comments
print report bad tab
guest
You may want to rate the tab now too:
select rating
Wanna post a correction for this tab? Suggest correction