Oops, an error
Loading. Please wait.

There Was A Hole Here - Silent Hill 2 Tab

85 views 1 this week
no commentswrite comment
1 2 3 4 5
3 more votes to show rating
add to favorites
launch autoscroll
font size
0
reset
how to read this tab
guitar tuner
Autoscroll
slow
fast
+/-
esc
set tempo
stop
Help us to improve Ultimate-Guitar.com Take our survey!
×
Hola a todos, nuevamente aqui les traigo un tab del juego Silent Hill 2
esta melodia esta para piano asi que decidi sacarla para guitarra ya
que todavia nadie ha podido sacarla.., espero les guste.

( Capodrastro en el 3er traste )

e:---------------------------------------------------:
B:------0-4-----------0-6---------0-4----------0-6-8-:
G:---5------------5-----------5-------------5--------: X2
D:---------------------------------------------------:
A:-0----------0-------------0-----------0------------:
E:---------------------------------------------------:


e:------8-0--4-6-4-0--------8-0--4-6-4-0----4-6-4-0--:
B:---------------------------------------------------:
G:---5---------------5-5------------------5----------:
D:---------------------------------------------------:
A:-0-------------------------------------------------:
E:---------------------------------------------------:

Esta parte se toca bastante rapido..

e:---------0-----4-------------0-----4-----6--0---:
B:---6-------------------6------------------------:
G:-5---5------5-----5-------5-----5-----5---------:
D:------------------------------------------------:
A:------------------------------------------------:
E:------------------------------------------------:
                                                       Estas dos partes X4
e:---4----6-----8-4--6-----4-0-0---6------:
B:-----------------------8-------6----8---:
G:-5---5-----5----------------------------:
D:----------------------------------------:
A:----------------------------------------:
E:----------------------------------------:

Esta parte va un poco lenta..

e:------------6-----------:
B:-------0-4----6-4-------:
G:----5---------------5---:  X4
D:------------------------:
A:-0----------------------:
E:------------------------:


Este es el tab. cualquier cosa haganmelo saber  joanls07@
Suggest correction
Give kudos to tab author, rate the tab!
1 2 3 4 5
comments
print report bad tab
guest
You may want to rate the tab now too:
select rating
Wanna post a correction for this tab? Suggest correction