Oops, an error
Loading. Please wait.

Zelda - Gerudo Valley Tab

481 views 9 this week
no commentswrite comment
1 2 3 4 5
3 more votes to show rating
add to favorites
launch autoscroll
font size
0
reset
how to read this tab
guitar tuner
Autoscroll
slow
fast
+/-
esc
set tempo
stop
Help us to improve Ultimate-Guitar.com Take our survey!
×
El intro es + o - así:

      C#7                  C#
e|------------------5---4-5-7---9-----|
b|---------------6--------------9-----|
g|----------4-6-----------------10----|
D|--------6---------------------------|
A|------4-----------------------------|
E|------------------------------------|

Se repide este 'Círculo' varias veces

F#m - D - E - C#7

Y la melodía:

F#m                 D                  E               C#7

e|-----4-5-----4-5------4-5-----4-5--------4-------4-/---4-----|
b|---7-------7--------7-------7--------5-7-----5-7---/-7---7-6-|
g|-6-------6--------7-------7--------4-------4-------/---------|
D|---------------------------------------------------/---------|
A|---------------------------------------------------/---------|
E|---------------------------------------------------/---------|

Se repite hasta las diagonales, con el siguiente final

C#7

e|---5-7-5-4---|
b|-------------|
g|-------------|
D|-------------|
A|-------------|
E|-------------|

Y luego:

F#m            D            E          C#7

e|----5-4--------------------------4-------------------|
b|--------7---5----5~7~5-------------7-5--------5------|
g|--6-------6------------7-------4-------7-6--7---7-6--|
D|-----------------------------------------------------|
A|-----------------------------------------------------|
E|-----------------------------------------------------|

e|---5-4------------------------------------------|
b|-------7---5----5~7~5--------------7-5----------|
g|-6-------6------------7------4-----4-4----7-6---|
D|---------------------------7--------------6-6---|
A|------------------------------------------------|
E|------------------------------------------------|

e|-5-4-5-4---------------------4---4---------------------|
b|-----------5-------------------7---5-----------5-------|
g|---------6------7-6-7----------------7-6-----7---7-6---|
D|-------------------------------------------------------|
A|-------------------------------------------------------|
E|-------------------------------------------------------|

e|------------------------------------------------------------|
b|--------------------------------------------------9-7-------|
g|-------6---------6------------7--------7--------------------|
D|---6-7-------6-7----------6-7------6-7--------7-9------9-11-|
A|-9---------9------------9--------9--------------------11-11-|
E|------------------------------------------------------------|

e|-------------------------------------|
b|-10-9-10-------9-10-12-10-9-10-9-10--|
g|------------11-----------------------|
D|-------------------------------------|
A|-------------------------------------|
E|-------------------------------------|

e|-------------------------------------|
b|-9----9--------9-10-9----9-----------|
g|---11-----9-11--------11---11-10-----|
D|-------------------------------------|
A|-------------------------------------|
E|-------------------------------------|

e|-------------------------------------|
b|-10-9-10-------9-10-12-10-9-10-9-10--|
g|------------11-----------------------|
D|-------------------------------------|
A|-------------------------------------|
E|-------------------------------------|

e|-------------------9-10-12-9----9-|
b|-12-10-12--9-10-12-----------12---|
g|----------------------------------|
D|----------------------------------|
A|----------------------------------|
E|----------------------------------|

Este es el final:
F#m                      D
e|-------------------------------------------|
b|-------------------------------------------|
g|---2-1-2-----2-1-2-------2-1-2----2-1-2----|
D|-4---------4-----------0--------0----------|
A|-------------------------------------------|
E|-------------------------------------------|

 E                      C#7
e|-----------------------------------------|
b|----------------------3-5-3-2------------|
g|----4-3-4----4-3-4-----------------------|
D|--2--------2-----------------------------|
A|-----------------------------------------|
E|-----------------------------------------|

Disfrutenlo!!
'La luz oscura cierra la celestial quemazón diurna'
Suggest correction
Give kudos to tab author, rate the tab!
1 2 3 4 5
comments
print report bad tab
guest
You may want to rate the tab now too:
select rating
Wanna post a correction for this tab? Suggest correction