Oops, an error
Loading. Please wait.

Zelda - Kakariko Village Tab

182 views 1 this week
no commentswrite comment
1 2 3 4 5
3 more votes to show rating
add to favorites
launch autoscroll
font size
0
reset
how to read this tab
guitar tuner
Autoscroll
slow
fast
+/-
esc
set tempo
stop
Help us to improve Ultimate-Guitar.com Take our survey!
×
Ok. Estaba buscando esta tablatura pero no la encontre
para guitarra, asi que decidi sacarla.. , esta muy facil , aqui les va.


PARTE 1:
e|-------0-----|-------------|-------3-----|-------1-----|
B|-----1---1---|-------1-----|-----1---1---|-----3---3---|
G|---0-------0-|-----2---2---|---2-------2-|---0-------0-|
D|-------------|---2-------2-|-0-----------|-------------|
A|-3-----------|-0-----------|-------------|-------------|
E|-------------|-------------|-------------|-3-----------|

PARTE 2:
e|-------------|-------------|-------------|-------------|
B|-----1---1---|-----0---0---|------1---1--|-----2---2---|
G|-------2---2-|-------0---0-|---0---0---0-|---2---2---2-|
D|-------------|-------------|-------------|-------------|
A|---0---------|---2---------|-3-----------|-0-----------|
E|-1-----------|-3-----------|-------------|-------------|

PARTE 3:
e|-------------|-------------|-------------|-------------|
B|-----1---1---|-----0---0---|-----1---1---|-----1---1---|
G|---2---2---2-|-------------|-------------|-------------|
D|-0-----------|---0---0---0-|---0---0---0-|---0---0---0-|
A|-------------|-------------|-------------|-------------|
E|-------------|-3-----------|-2-----------|-2-----------|

Desde aqui comienza la segunda guitarra para la pimera parte
e|-------------|-------------|-0-----------|-3-----------|
B|-------------|-1-----------|-----------1-|-------------|
G|-----------0-|-----------0-|-------------|-------------|
D|-------------|-------------|-------------|-------------|
A|-------------|-------------|-------------|-------------|
E|-------------|-------------|-------------|-------------|

2DA guitarra para la segunda parte
e|-----------3-|-5-----------|-----------5-|-3-----------|
B|-------------|-------------|-5-----------|-------------|
G|-------------|-------------|-------------|-------------|
D|-------------|-------------|-------------|-------------|
A|-------------|-------------|-------------|-------------|
E|-------------|-------------|-------------|-------------|

2DA guitarra para la tercera parte
e|-0-----------|-0-----------|-0-----------|-------------|
B|-------------|-------------|-----------3-|-1-----------|
G|-------------|-------------|-------------|-------------|
D|-------------|-------------|-------------|-------------|
A|-------------|-------------|-------------|-------------|
E|-------------|-------------|-------------|-------------|


Espero que lo disfruten .
y por favor traten de sacar otra version mas completa para guitarra
(gracias)
Suggest correction
Give kudos to tab author, rate the tab!
1 2 3 4 5
comments
print report bad tab
guest
You may want to rate the tab now too:
select rating
Wanna post a correction for this tab? Suggest correction