Oops, an error
Loading. Please wait.

Zelda - Lost Woods Tab

182 views 1 this week
no commentswrite comment
1 2 3 4 5
3 more votes to show rating
add to favorites
×
Save as Personal and add changes to this tab that will be seen only by you. Learn more ›
×
You can save this tab as Personal to edit and correct it or add notes. All changes will be seen only by you. Learn more »
save as personal
new!
launch autoscroll
font size
0
reset
how to read this tab
guitar tuner
Autoscroll
slow
fast
+/-
esc
set tempo
stop
Aquí está la canción de fondo de la escena de Lost Woods,
o la 'Saria's song' que aprende Link en su ocarina para
comunicarse con Saria

Allegro (~125 bpm), Compás 4/4.

A continuación, 2 partes, 1ro la rítmica y posteriormente la melodía...


---RÍTMICA---

Nota: cada sección es un compás, o al menos eso intenté :P

E|----------------------|
A|----------------------|
D|--3---------3---------|
g|----2-2-2-----2-2-2---|       x 2
b|----1-1-1-----1-1-1---|
e|----------------------|

E|------------------|------------------|
A|-----------------3|----------------3-|
D|--2--------2------|-2--------2-------|
g|----2-2-2----2-2--|---2-2-2----2-2---|
b|----1-1-1----1-1--|---1-1-1----1-1---|
e|------------------|------------------|

E|----------------------|
A|----------------------|
D|--3---------3---------|
g|----2-2-2-----2-2-2---|       x 2
b|----1-1-1-----1-1-1---|
e|----------------------|

E|------------------|------------------|
A|-----------------3|----------------3-|
D|--2--------2------|-2--------2-------|
g|----2-2-2----2-2--|---2-2-2----2-2---|
b|----1-1-1----1-1--|---1-1-1----1-1---|
e|------------------|------------------|

E|----------3---3---|------------------|
A|--5---5-----------|-3---3---0---0----|
D|----3---3---0---0-|---5---5---2---2--|     x 3
g|----2---2---0---0-|---5---5---2---2--|
b|------------------|------------------|
e|------------------|------------------|

E|------------------|------------------|
A|--5-------5-------|-3-------3--------|
D|----3-3-3---3-3-3-|------------------|
g|----2-2-2---2-2-2-|---0-0-0---0-0-0--|
b|------------------|---0-0-0---0-0-0--|
e|------------------|------------------|

E|------------------|------------------|
A|------------------|------------------|
D|--2-------2-------|-2-----2-2---2----|
g|----2---2---2---2-|---1-1-1-1--------|
b|----0---0---0---0-|---0-0-0-0--------|
e|------------------|-------------0----|

Eso es todo. Se repite desde el inicio.
Pueden incluír variaciones al gusto jajaja.

Ahora, la melodía, recuerden darle los matices de volumen en cada
parte, según crean conveniente.


---MELODÍA---

Nota: se toca al unísono con el rítmo, si logran acoplar
las 2 guitarras se escuchará muy bien!!
Añadan percusiones y será poca madre!!

Traté de acomodarlos también por compases, pero la clave
está en sentir los cambios y en dónde se inserta la
melodía, con nuestros propios oídos.


E|-----------------|------------------|
A|-----------------|------------------|
D|--3-------3------|-3----------------|
g|----2-------2----|---2--------------|
b|------0-------0--|-----0---3----0-1-|
e|-----------------|-------0----------|

E|-----------------|------------------|
A|-----------------|------------------|
D|-----2----------0|-2-0-2------------|
g|---0-------------|------------------|
b|-0---------------|------------------|
e|-----------------|------------------|

E|-----------------|------------------|
A|-----------------|------------------|
D|--3-------3------|--3---------------|
g|----2-------2----|----2-------------|
b|------0-------0--|------0---3----0-1|
e|-----------------|--------0---------|

E|-----------------|------------------|
A|-----------------|------------------|
D|-----------------|---0-2------------|
g|-----0-----------|-0----------------|
b|---0------------0|------------------|
e|-0---------------|------------------|

E|------------------|-----------------|
A|--5---------------|-----------------|
D|----2-3----5------|------2----------|
g|-------------2-4--|--5-4------------|
b|------------------|-----------------|
e|------------------|-----------------|

E|------------------|-----------------|
A|--5---------------|-----------------|
D|----2-3-----------|-----------------|
g|-----------0-2-4--|-----------------|
b|-----------0-1-3--|--0-3-5----------|
e|------------------|--0-1-3----------|

E|------------------|-----------------|
A|--5---------------|-----------------|
D|----2-3----5------|------2----------|
g|-------------2-4--|--5-4------------|
b|------------------|-----------------|
e|------------------|-----------------|

E|-----------------|------------------|
A|--5-3------------|------------------|
D|------3-2-5-3---5|------------------|
g|--------------2--|-4-2-5-4---5-----7|
b|-----------------|---------2---5-6--|
e|-----------------|------------------|

E|-----------------|------------------|
A|-----------------|------------------|
D|-----------------|------------------|
g|-----------------|---(silencio)-----|
b|-5---------------|------------------|
e|-----------------|------------------|

Y se reanuda la melodía desde el principio, igual que
con el ritmo. Está muy fácil y no es muy larga.
Diviertanc y felices melodías
(jajaja eso se escucho como Bob Ross).
-----------------------------------------------------
Disfrútenlo, cualquier petición,
sugerencia, correción etc...
Mandenme un Mail con 'ATAME' en el asunto
Suggest correction
Give kudos to tab author, rate the tab!
1 2 3 4 5
comments
print report bad tab
guest
Wanna post a correction for this tab? Suggest correction