Oops, an error
Loading. Please wait.

Zelda - Rockvale Temple Tab

39 views 1 this week
no commentswrite comment
1 2 3 4 5
3 more votes to show rating
add to favorites
launch autoscroll
font size
0
reset
how to read this tab
guitar tuner
×
Best way to learn
"Zelda - Rockvale Temple"
Autoscroll
slow
fast
+/-
esc
set tempo
stop
 Aqui les dejo el TAB de el ultimo temple de la ZELDA
 MAJORA´S

 Para que suene correctamente la guitarra debe estar en 440
 y deben tener el la velocidad adecuada...

 (INTRO)

 e-----------------------------
 B-----------------------------
 G----------0----------0-------   Esta parte se repite varias
 D--4--4--4-----4--4-----0-----   veces.
 A-2--2--2----2--2--2----------
 E-----------------------------


  (ESTRIBILLO) - suena mejor con una segunda guitarra,
                 tambien en 440


  e---------------------------------------
  B---------------------------------------
  G-2-5-4-0-2-5-4-2-0----2-5-4-0-2-5-4-0-2
  D-------------------2-------------------
  A---------------------------------------
  E---------------------------------------

 Esta parte tambien se repite varias veces..


 Esa es toda la sonata.,disfrutenla.


 '' Las espinas de hoy ,pueden ser la flor de mañana ''
Suggest correction
Give kudos to tab author, rate the tab!
1 2 3 4 5
comments
print report bad tab
guest
You may want to rate the tab now too:
select rating
Wanna post a correction for this tab? Suggest correction