Oops, an error
Loading. Please wait.

Zelda - Song Of Storms Tab

1,035 views 27 this week
no commentswrite comment
1 2 3 4 5
x 5
add to favorites
launch autoscroll
font size
0
reset
how to read this tab
guitar tuner
Autoscroll
slow
fast
+/-
esc
set tempo
stop
e aki la kancion k suena kuando entras en el molino
kreo k sta bien... sino, mandame un email pliz

E---------10----------10--12--13--12--13--12-------------------------------------------------------
B------10---------10-------------------------13--10------10--------------10-------10---------------
G-----------------------------------------------------------------10--12------------------10--12--9
D---12--------12----------------------------------------------12----------------------12-----------
A--------------------------------------------------------------------------------------------------
E--------------------------------------------------------------------------------------------------


E---------10----------10--12--13--12--13--12----------------------------------------------
B------10---------10-------------------------13--10------10--------------10-------10------
G-----------------------------------------------------------------10--12------------------
D---12--------12----------------------------------------------12----------------------12--
A-----------------------------------------------------------------------------------------
E-----------------------------------------------------------------------------------------

molaria k alguien la verionara, keno ¿?
ale maj0s.. un bes0 !! ;@@
Suggest correction
comments
print report bad tab
guest
You may want to rate the tab now too:
select rating
Wanna post a correction for this tab? Suggest correction