Oops, an error
Loading. Please wait.

Zelda 183 - Canción Del Tiempo Tab

43 views 1 this week
no commentswrite comment
1 2 3 4 5
3 more votes to show rating
add to favorites
launch autoscroll
font size
0
reset
how to read this tab
guitar tuner
×
Best way to learn
"Zelda 183 - Canción Del Tiempo"
Autoscroll
slow
fast
+/-
esc
set tempo
stop
Bueno esta cancion comienza un poco aguda...
tiene que dejar la nota sonar para que le de el efecto del templo
aqui les va a , es cierto tienen que tenerla afina en E+

e-5---1---5-----1---5---7---5--3--1--3--5--1---------
B---3--------3--------------------------------3--1---
G--------------------------------------------------2-
D----------------------------------------------------
A----------------------------------------------------
E----------------------------------------------------


e----------------------------------------------------
B----------------------------------------------------
G--2----------2-----------2-5-4--0-----0-2-----------
D------0---3------0---3-------------3------0----2-0--
A---------------------------------------------3------
E----------------------------------------------------
Suggest correction
Give kudos to tab author, rate the tab!
1 2 3 4 5
comments
print report bad tab
guest
You may want to rate the tab now too:
select rating
Wanna post a correction for this tab? Suggest correction