Oops, an error
Loading. Please wait.

Zelda Lullaby Tab

version 2
version 2

Whole song

156 views 1 this week
no commentswrite comment
1 2 3 4 5
3 more votes to show rating
add to favorites
launch autoscroll
font size
0
reset
how to read this tab
guitar tuner
Autoscroll
slow
fast
+/-
esc
set tempo
stop
Help us to improve Ultimate-Guitar.com Take our survey!
×
ps,.....
he aki el arpegeo de
la cancion mas fregona de todo el juego
esta se tiene que excuchar la version
con oquesta para entenderla

Intro:

e|--------0----------2--|
B|----------------------|
G|--------------2-------|
D|----2-----------------| X2
A|----------3-----------|
E|-3--------------------|


e|---------5---------3--------3--------2------|
B|------3---------2--------2--------2---------|
G|--------------------------------------------|
D|------------------------------0-------------|
A|--2---------1--------0----------------------|
E|--------------------------------------------|


Verse 1:

e|-2---------5----0------------0---2--------5---0-----------|
B|--------------------------3-------------------------------|
G|-------------------0-----------------------------0--------|
D|----0-------------------------------0---------------------|
A|----------------3-----3-----------------------3-----3-----|
E|-3-----3-------------------------3-----3------------------|


e|--2---------5--10--------8---3---------1--0---------------|
B|--------------------------------1-------------3-----------|
G|------------------7------------------------------0--------|
D|-----2-----------------------2-----2----------------------|
A|---------------8-----8------------------------3-----3-----|
E|--3-----3-------------------------------------------------|


Verse 2:

e|------------------------------------------------------------|
B|-0---------3---------------------0--------3-----------------|
G|---------------2----------0h2----------------2--------------|
D|----0-------------4-----------------0-----------4-----------|
A|---------------0-----0-----------------------0-----0--------|
E|-3-----3-------------------------3-----3--------------------|


e|--------------5------3--10---------|
B|--0--------3----3------------------|
G|-----0---------------------7-------|
D|--------------4---4----------------|
A|-------------------------8---8-----|
E|--3-----3--------------------------|


e|--10-------8--7--8--7------8-------7--5--7---5---0---|
B|-----8-----------------8------6----------------------|
G|-----------------------------------------0-----------|
D|---9----9--------7---------7----7--------------------|
A|-----------------------7-----------------------------|
E|-----------------------------------------------------|


e|--10-------8--7--8--7-----8---15--------------------8------------14----|
B|------8----------------8----------12-------------10------------12------|
G|-----------------------------------------------8-------------12--------|
D|---9----9--------7------------13-----13------9-------------13----------|
A|-----------------------7---------------------------------12------------|
E|-------------------------------------------8-----------12--------------|


Ending:

e|-------------------------------------------------------|
B|--0--------3-------------------0-------3---------------|
G|--------------2--------0h2-----------------2-----------|
D|-----0-----------4---------------0------------4--------|
A|--------------0----0-----------------------0-----0-----|
E|--3----3-----------------------3----3------------------|


e|--------------5---------3-------------------------------|
B|--0-------3------3---------3---------1--0---------------|
G|----0-------------------------0------------2------------|
D|--------------4-----4-------------------------4---------|
A|---------------------------3-----3---------0-----0------|
E|--3----3------------------------------------------------|


e|------------0---------|
B|----------3-----------|
G|--------0-------------|
D|------2---------------|
A|----0-----------------|
E|--3-------------------|

DEVERDAD ES UN BONITA ARPEGEO
la neta lo vale
Suggest correction
Give kudos to tab author, rate the tab!
1 2 3 4 5
comments
print report bad tab
guest
You may want to rate the tab now too:
select rating
Wanna post a correction for this tab? Suggest correction