Oops, an error
Loading. Please wait.

Zelda Majora*s Mask Tab

version 1
version 1

Whole song

121 views 1 this week
no commentswrite comment
1 2 3 4 5
3 more votes to show rating
add to favorites
launch autoscroll
font size
0
reset
how to read this tab
guitar tuner
×
Best way to learn
"Zelda Majora*s Mask"
Autoscroll
slow
fast
+/-
esc
set tempo
stop
 Inversal Song of Time

e-----5-----5--------------
B-6-----6-----(6)-5-4-3-2-1
G--7------7----------------

 Sonata of Awakening
e-10----10-----------
B---12----12---------
G--------------10----
D------------12---12-

 Soaring Song

e-------10-------10-
B----12-------12----
G-10-------10-------

 Goron Lullaby
e------------------------------
B------------------------------
G----10--12------10--12--10----
D-12---------12-------------12-

 New Wave Bossa Nova

e-----10----------------
B-12----12-10-----12-10-
G-----------------------
D--------------12-------

 Elegy of Emptiness

e-----------------10---
B-10--12-10----10---10-
G-----------10---------

 Oath of Order

e----------------10-
B-10----------10----
G---10----10--------
D------12-----------
Suggest correction
Give kudos to tab author, rate the tab!
1 2 3 4 5
comments
print report bad tab
guest
You may want to rate the tab now too:
select rating
Wanna post a correction for this tab? Suggest correction