Oops, an error
Loading. Please wait.

Zelda Majora*s Mask Tab

version 2
version 2

Whole song

50 views 1 this week
no commentswrite comment
1 2 3 4 5
3 more votes to show rating
add to favorites
launch autoscroll
font size
0
reset
how to read this tab
guitar tuner
Autoscroll
slow
fast
+/-
esc
set tempo
stop
Help us to improve Ultimate-Guitar.com Take our survey!
×
Bien y bien, este es el intro ke suena
al comenzar juego. es mi primera colaboracion, pero
creo que esta bastante aceptable, y ademas no estaba xD

Afinacion standar

Primero suena algo asi:

2]----------------------
3]----------------------
4]--12 11 9 12---------- x2
5]----------------------
6]----------------------

Y empieza con:

1]------13-12-10--10-------------------------------
2]--------------13--10--13-10-13-12-10-12-13-10----
3]--10---------------------------------------------
4]-------------------------------------------------
5]-------------------------------------------------
6]-------------------------------------------------

1]----13-12-10--10----------------------
2]------------10--10-13-12-10-13-12-----
3]--10------------------------------12--
4]--------------------------------------
5]--------------------------------------
6]--------------------------------------

1]------13-12-10--10-------------------------------
2]--------------13--10--13-10-13-12-10-12-13-10----
3]--10---------------------------------------------
4]-------------------------------------------------
5]-------------------------------------------------
6]-------------------------------------------------

1]----13-12-10---10-----------------------------
2]-------------13--10--13-12-10-13-12-13-10-----
3]--10------------------------------------------
4]----------------------------------------------
5]----------------------------------------------
6]----------------------------------------------

1]---------------------------15-14-15-14-11-12-9------
2]--15-15-15-14-15-16/17-10----------------------10---
3]----------------------------------------------------
4]----------------------------------------------------
5]----------------------------------------------------
6]----------------------------------------------------


1]--------------------------15-14-15-14-9-10-------
2]--14/15-15-15-14-15-17-10------------------------
3]-------------------------------------------------
4]-------------------------------------------------
5]-------------------------------------------------
6]-------------------------------------------------


1]-----------------------------15-14-15-14-11-11/12-9-----
2]---14/15-15-15-14-15-17-10--------------------------10--
3]--------------------------------------------------------
4]--------------------------------------------------------
5]--------------------------------------------------------
6]--------------------------------------------------------


1]-----------------------------15-14-15-14-9-10----
2]---14/15-15-15-14-15-17-10-----------------------
3]-------------------------------------------------
4]-------------------------------------------------
5]-------------------------------------------------
6]-------------------------------------------------

Y termina asi:

1]-------------------------------------------------
2]--14-13---12-11---14--13-12--11-10---------------
3]-------------------------------------------------

1]----------------------------12--12---------------
2]--14-13----16-15--15-13-10----10-----------------
3]-------------------------------------------------


Y vuelve a empezar...
si quieren pueden meterle variaciones mas cremas...
espero les sirva..!!
Si nesesitan otra, ahi tienen mi correo.,.
Suggest correction
Give kudos to tab author, rate the tab!
1 2 3 4 5
comments
print report bad tab
guest
You may want to rate the tab now too:
select rating
Wanna post a correction for this tab? Suggest correction