Oops, an error
Loading. Please wait.

Zelda Overworld Tab

157 views 1 this week
no commentswrite comment
1 2 3 4 5
3 more votes to show rating
add to favorites
launch autoscroll
font size
0
reset
how to read this tab
guitar tuner
×
Best way to learn
"Zelda Overworld"
Autoscroll
slow
fast
+/-
esc
set tempo
stop
este es el intro
e|-------------------------------------------------------|
B|--11~-----11--11-11-11-11-9-11----11-11-11-11-11-9-11--|
G|-------------------------------------------------------|
D|-------------------------------------------------------|
A|-------------------------------------------------------|
E|-------------------------------------------------------|

e|-------------------------------------------------------|
B|--11-11-11-11------------------------------------------|
G|--------------10-10-10--10-10-10--10-10-10-10----------|
D|-------------------------------------------------------|
A|-------------------------------------------------------|
E|-------------------------------------------------------|

e|---------------10-11-13---13-13-14-16-18---18-18-16-14-16-14-13|
B|--11-----11-13-------------------------------------------------|
G|----10---------------------------------------------------------|
D|---------------------------------------------------------------|
A|---------------------------------------------------------------|
E|---------------------------------------------------------------|

e|--13---11-11-13-14---13-11-9-9-11-13---11-9-8-8-10-12---15-13~--|
B|----------------------------------------------------------------|
G|----------------------------------------------------------------|
D|----------------------------------------------------------------|
A|----------------------------------------------------------------|
E|----------------------------------------------------------------|
Suggest correction
Give kudos to tab author, rate the tab!
1 2 3 4 5
comments
print report bad tab
guest
You may want to rate the tab now too:
select rating
Wanna post a correction for this tab? Suggest correction