Oops, an error
Loading. Please wait.

Zelda Twilight Princess - Hyrule Field Tab

389 views 3 this week
no commentswrite comment
1 2 3 4 5
3 more votes to show rating
add to favorites
launch autoscroll
font size
0
reset
how to read this tab
guitar tuner
×
Best way to learn
"Zelda Twilight Princess - Hyrule Field"
Autoscroll
slow
fast
+/-
esc
set tempo
stop
He aqui la cancion cuando entras al Hyrule Field en
la Zelda Twilight Princess. Que la disfruten.


e:-------------------------------3-2----------
b:-3-3--3--3-3-3-3--3-3-3-3--3-0-----3-2-0-2--
g:--------------------------------------------
D:--------------------------------------------
A:--------------------------------------------
E:--------------------------------------------

e:---3-2-------5-5-10-14-12-------------------
b:-0-----3-5-3---------------------15-14------
g:---------------------------14-12--------11--
D:--------------------------------------------
A:--------------------------------------------
E:--------------------------------------------

e:------------------------------
b:--------12-15-14--------------
g:-12-14------------------------
D:------------------------------
A:------------------------------
E:------------------------------


Esa es toda la sonata,espero les guste.
Por favor traten de sacar el kakariko village de este juego.

-= saludos al equipo La Cuerda =-
Suggest correction
Give kudos to tab author, rate the tab!
1 2 3 4 5
comments
print report bad tab
guest
You may want to rate the tab now too:
select rating
Wanna post a correction for this tab? Suggest correction