Oops, an error
Loading. Please wait.

Den Al Señor Sus Alabanzas Tab

21 views 1 this week
no commentswrite comment
1 2 3 4 5
3 more votes to show rating
add to favorites
launch autoscroll
font size
0
reset
how to read this tab
guitar tuner
Autoscroll
slow
fast
+/-
esc
set tempo
stop
Help us to improve Ultimate-Guitar.com Take our survey!
×
Este es el intro que muchas personas tocan
para esta cancion, igual se toca despues de
cada estrofa en el tiempo que ahi se deja,
se los dejo de varias formas.


Intro

Si cuentas con dos guitarras acústicas

e--12--12--10--10---9---9---7---7---5----|
B----------------------------------------|
G--13--13--11--11--10--10---8---8---6----|
D----------------------------------------|
A----------------------------------------|
E----------------------------------------|

e----------------------------------------|
B----------------------------------------|
G---8---8---6---6---5---5---3---3---1----|
D---9---9---7---7---6---6---4---4---2----|
A----------------------------------------|
E----------------------------------------|


Si cuentas con dos electricas

Para esta si tienes una distorcion ligera
o un overdrive se oiria muy bien
e----------------------------------------|
B----------------------------------------|
G--10--10---7---7---6---6---4---4---2----|
D--10--10---7---7---6---6---4---4---2----|
A---9---9---5---5---4---4---2---2---0----|
E----------------------------------------|

Para esta con un Wah
e----------------------------------------|
B--19--19--17--17------------------------|
G-------------------20--20--19--19--17~~~|
D----------------------------------------|
A----------------------------------------|
E----------------------------------------|


Si cuentas solo con una

e----------------------------------------|
B----------------------------------------|
G----------------------------------------|
D---2---2---0---0------------------------|
A-------------------4---4---2---2---0----|
E----------------------------------------|
Suggest correction
Give kudos to tab author, rate the tab!
1 2 3 4 5
comments
print report bad tab
guest
You may want to rate the tab now too:
select rating
Wanna post a correction for this tab? Suggest correction