Oops, an error
Loading. Please wait.

Entre Tus Manos Tab

52 views 3 this week
no commentswrite comment
1 2 3 4 5
2 more votes to show rating
add to favorites
launch autoscroll
font size
0
reset
how to read this tab
guitar tuner
Autoscroll
slow
fast
+/-
esc
set tempo
stop
Help us to improve Ultimate-Guitar.com Take our survey!
×
saludos a la parroquia 'ASUNCION DE MARIA'
por el coro JESUS DE NAZARETH.

espero y les guste:


                  GUITARRA, INTRO:


e --0---1---3---1---1---1---3---5---3---0----------
B --1---3---5---3---3---3---5---6---5---1---1---0--
G ------------------------------------------2---0--

e ---3---7---3---1---3---1---3---1---0---3---7----
B ---5---8---5---3---5---3---5---3---1---5---8----
G ------------------------------------------------

e ---3---5---7---8---8---7---5---7-------0---1---3---1---3---1---3---1---0-------0--
B ---5---6---8---10--10--8---5---8-------1---3---5---3---5---3---5---3---1---3---1--
G ---------------------------------------------------------------------------4------

e ---1---3---5---5---7---8---7---5---3---3----
B ---3---5---6---6---8---10--8---6---5---5----
G --------------------------------------------

e ---1---3---5---5---7---8---7---5---3---3----
B ---3---5---6---6---8---10--8---6---5---5----
G --------------------------------------------

e ---0---1---3---1---3---1---1---3---5---3---0----------
B ---1---3---5---3---5---3---3---5---6---5---1---1---0--
G -----------------------------------------------2---0--

e ---3---7---3---1---3---1---3---1---0--------0--
B ---5---8---5---3---5---3---5---3---1---3----1--
G ---------------------------------------4-------


                       PIANO, INTRO:


C-D-E-D-D-D-E-F-E-C-A-G-
E-G-E-D-E-D-E-D-C-E-G-
E-F-G-A-A-G-F-G--
C-D-E-D-E-D-E-D-C-B-C-

D-E-F-F-G-A-G-F-E-E-
D-E-F-F-G-A-G-F-E-
C-D-E-D-E-D-D-E-F-E-C-A-G-
E-G-E-D-E-D-E-D-C-B-C-


                      CANTO:


D          Em       A7      D       D7
Entre tus manos  esta mi vida señor
            Em  A7            D
Entre tus manos pongo mi existir
D7       G    A7       D
Hay que morir para vivir
B           Em   A7         D
Entre tus manos  confio mi ser


D7       G     Em  A7       D
Si el grano de trigo no muere
D7     G     Em  A7   D
Si no muere solo quedara
D7       Em  A7         D    D7
Pero si muere en abundancia dara
           Em     A7        D
Un fruto eterno   que no morira


IMPORTANTE:  el intro se vuelve a tocar al final o en medio
             de cada estrofa, el sonido del intro de la GUITARRA
             es = al intro del PIANO.    BYE
Suggest correction
Give kudos to tab author, rate the tab!
1 2 3 4 5
comments
print report bad tab
guest
You may want to rate the tab now too:
select rating
Wanna post a correction for this tab? Suggest correction