Oops, an error
Loading. Please wait.

Getsemaní Tab

22 views 1 this week
no commentswrite comment
1 2 3 4 5
3 more votes to show rating
add to favorites
launch autoscroll
font size
0
reset
how to read this tab
guitar tuner
×
Best way to learn
"GetsemanÍ"
Autoscroll
slow
fast
+/-
esc
set tempo
stop
GETSEMANÍ


            [ch]C                    MimAdd7               [ch]Am[/ch]                      [ch]F[/ch]                REm[/ch]  
1 |----------------------0---|--------------0---|--------------0-----|------------------1---|-----------1--|
2 |--------------------1-----|-----------3------|--------1-------1---|--------------1-------|--------3-----|
3 |-----------------0--------|--------0---------|------0---0---------|-----------2----------|-----2--------|
4 |--------------------------|------------------|--------------------|----------------------|--0-----------|
5 |-----0h2---3--------------|-----2------------|---0----------------|---0-2----------------|--------------|
6 |--------------------------|------------------|--------------------|-------1--------------|--------------|


              [ch]G[/ch]
1 |----------3---------3--|
2 |------------3---3------|
3 |--------0-----0---0----|
4 |-----------------------|
5 |-----------------------|
6 |-----3-----------------|


Verso:

            [ch]C                    MimAdd7               [ch]Am[/ch]                      [ch]F[/ch]                REm[/ch]  
1 |----------------------0---|--------------0---|--------------0-----|------------------1---|-----------1--|
2 |--------------------1-----|-----------3------|--------1-------1---|--------------1-------|--------3-----|
3 |-----------------0--------|--------0---------|------0---0---------|-----------2----------|-----2--------|
4 |--------------------------|------------------|--------------------|----------------------|--0-----------|
5 |-----0h2---3--------------|-----2------------|---0----------------|---0-2----------------|--------------|
6 |--------------------------|------------------|--------------------|-------1--------------|--------------|


              [ch]G[/ch]
1 |----------3---------3--|
2 |------------3---3------|
3 |--------0-----0---0----|
4 |-----------------------|
5 |-----------------------|
6 |-----3-----------------|


           [ch]Em                        MIm               [ch]Am[/ch]                      FA[/ch]                [ch]Dm[/ch]  
1 |-----------------------|------------------|------------------------|------------------1---|----------1--|
2 |----------------0------|-----------0------|-------0h1--------0h1---|--------------1-------|--------3----|
3 |-------------0-----0---|--------0-----0---|----0------0----0-----0-|-----------2----------|-----2-------|
4 |-----------------------|------------------|------------------------|----------------------|--0----------|
5 |-----------------------|------------------|--0----------0----------|----------------------|-------------|
6 |---3h2---0-------------|-----0------------|------------------------|-------1--------------|-------------|


              [ch]G[/ch]
1 |----------3---------3--|
2 |------------3---3------|
3 |--------0-----0---0----|
4 |-----------------------|
5 |-----------------------|
6 |-----3-----------------|


            [ch]C                    MimAdd7               [ch]Am[/ch]                      [ch]F[/ch]                REm[/ch]  
1 |----------------------0---|--------------0---|--------------0-----|------------------1---|-----------1--|
2 |--------------------1-----|-----------3------|--------1-------1---|--------------1-------|--------3-----|
3 |-----------------0--------|--------0---------|------0---0---------|-----------2----------|-----2--------|
4 |--------------------------|------------------|--------------------|----------------------|--0-----------|
5 |-----0h2---3--------------|-----2------------|---0----------------|---0-2----------------|--------------|
6 |--------------------------|------------------|--------------------|-------1--------------|--------------|


              [ch]G[/ch]
1 |----------3---------3--|
2 |------------3---3------|
3 |--------0-----0---0----|
4 |-----------------------|
5 |-----------------------|
6 |-----3-----------------|


           [ch]Em                        MIm               [ch]Am[/ch]                      FA[/ch]                [ch]Dm[/ch]  
1 |-----------------------|------------------|------------------------|------------------1---|-----------1-|
2 |----------------0------|-----------0------|-------0h1--------0h1---|--------------1-------|--------3----|
3 |-------------0-----0---|--------0-----0---|----0------0----0-----0-|-----------2----------|-----2-------|
4 |-----------------------|------------------|------------------------|----------------------|--0----------|
5 |-----------------------|------------------|--0----------0----------|----------------------|-------------|
6 |---3h2---0-------------|-----0------------|------------------------|-------1--------------|-------------|

              [ch]G[/ch]
1 |----------3---------3--|
2 |------------3---3------|
3 |--------0-----0---0----|
4 |-----------------------|
5 |-----------------------|
6 |-----3-----------------|

Coro:

[ch]G       [ch]C          SOL         LAm[/ch]          [ch]Em[/ch]     FA[/ch]
     Más alla de mis miedos más alla de mi inseguridad
      
          [ch]Dm          SOL[/ch]
     Quiero darte mi respuesta

           [ch]C          [ch]G      LAm[/ch]                 MIm[/ch]
     Aquí estoy para hacer tu voluntad para que mi amor 

           [ch]F      SOL[/ch]           Puente
     Sea decirte sí hasta el final

Puente:
              [ch]C[/ch]
1 |----------------0---------|
2 |-----------0-------3---3--|
3 |---------0---0-------0----|
4 |--------------------------|
5 |---0h2--3-----------------|
6 |--------------------------|
Estructura

VersoX2
Coro
VersoX2
Coro
VersoX2
CoroX2 (Aquí donde dice puente se toca Lam y luego se repite el coro)

El final se puede tocar arpegeando los acordes del coro y al final rasguear un Do mayor
Suggest correction
Give kudos to tab author, rate the tab!
1 2 3 4 5
comments
print report bad tab
guest
You may want to rate the tab now too:
select rating
Wanna post a correction for this tab? Suggest correction