Oops, an error
Loading. Please wait.

Gloria A Dios Tab

13 views 1 this week
no commentswrite comment
1 2 3 4 5
3 more votes to show rating
add to favorites
launch autoscroll
font size
0
reset
how to read this tab
guitar tuner
×
Best way to learn
"Gloria A Dios"
Autoscroll
slow
fast
+/-
esc
set tempo
stop
Versos
 Gloria Gloria  A dios en el cielo Y en la tierra a los hombres paz  
E--------------------------------------------------------------------------------------------------------------
B--------------------------------------------------------------------------------------------------------------
G--9-9-9---9-9-9-----8---8---9-------------------------8--8----9?----------------------------------------
D--9-9-9---9-9-9-----7---7---9------12--12----10-10----7--7----9?----------------------------------------
A--7-7-7---7-7-7-----9---9---7------12--12----10-10----9--9----7?----------------------------------------
E--0-0-0---0-0-0-----7---7---0------10--10-----8--8----7--7----0?----------------------------------------
?
 Te alabamos y te......
E------------------------------------------------------------------------------------------------------------
B------------------------------------------------------------------------------------------------------------
G------------------------------------------------------------------------------------------------------------
D-------------------------------------2-----------------------------------------------------------------------
A-----5--7 ?----7-7-7-8-8-7-5-------5---3 ?--3-3-3-5-5-3-2 ?------------------------------------------
E---8--------------------------------------------------------------------------------------------------------

Señor dios nuestro ..................
E------------------------------------------------------------------------------------------------------------
B------------------------------------------------------------------------------------------------------------
G------------------------------------------------------------------------------------------------------------
D--9------9-9 ?---5------5--------7-------/9--5-----------------------------------------------------------
A----7-7-------------7------7---------5-5--------7-----9-9h10--9--7----9-9h10--9--7---------------
E------------------------------------------------------------------------------------------------------------

Tu que quitas el pecado....
E------------------------------------------------------------------------------------------------------------
B------------------------------------------------------------------------------------------------------------
G------------------------------------------------------------------------------------------------------------
D-12-14-12-12-12-12-14-12-14--9 ?-9 ?----9-9h10--9--7----9-9h10--9--7-----------------------
A------------------------------------------------------------------------------------------------------------
E------------------------------------------------------------------------------------------------------------

Solo tu eres santo...........
E------------------------------------------------------------------------------------------------------------
B------------------------------------------------------------------------------------------------------------
G----------------------------------------7-7-7-7--7-7------------------------------------------------------
D-----------9-9---9p7------------------7-7-7-7--7-7-----------------------------------------------------
A-7-7-7-7-------------10-9-10--7----5-5-5-5--5-5?9h10p9-5-7------------------------------------
E-0-0-0-0--------------------------------------------------------------------------------------------------

E------------------------------------------------------------------------------------------------------------
B------------------------------------------------------------------------------------------------------------
G------------------------------------------------------------------------------------------------------------
D-----------9-9--9-7-9-7-----------------------------------------------------------------------------------
A-7-7-7-7----------------10-9-10--7---5-5--5-5----9-10-9--5-/-7-------------------------------------
E-0-0-0-0----------------------------------------------------------------------------------------------------
Suggest correction
Give kudos to tab author, rate the tab!
1 2 3 4 5
comments
print report bad tab
guest
You may want to rate the tab now too:
select rating
Wanna post a correction for this tab? Suggest correction