Oops, an error
Loading. Please wait.

Himno De La Infancia Misionera Colombiana Tab

13 views 1 this week
no commentswrite comment
1 2 3 4 5
3 more votes to show rating
add to favorites
launch autoscroll
font size
0
reset
how to read this tab
guitar tuner
×
Best way to learn
"Himno De La Infancia Misionera Colombiana"
Autoscroll
slow
fast
+/-
esc
set tempo
stop
El pentagrama se encuentra ilustrado 
En el manual de la Infancia 
Misionera, aqui esta en tablatura 
pero adicione los tiempos iguales

Símbolos
+: Terminación del compás
b: Blanca
N: Negra
C: Corchea
S: Semicorchea

COMPAS: 4/4

MARCIAL:

-3-3-3--3-3-3--3-------+----------------+=E                    
-2-2-2--2-2-2--2-------+----------------+=A                                        
-----------------------+----------------+=D                                       
-----------------------+----------------+=G
-3-3-3--3-3-3--3--3-3--+----------------+=B
-3-3-3--3-3-3--3-------+-3--5-3---0--0--+=e
 C S S  C S S  N  C S    N  C S   N  N      


---------------+------------------+=E
---------------+------------------+=A
---------------+------------------+=D
---------------+------------------+=G
------------3--+------------------+=B
-5--0-0--3-----+-5--7-5--3-3-3--3-+=e
 N  C C  N  N    N  C S  S S S  N

CORO:

----------------+--------------+--------------+=E
----------------+--------------+--------------+=A
----------------+--------------+--------------+=D
----------------+--------------+--------------+=G
----3-3-----3-3-+------------3-+----3-3-----3-+=B
-3-------3------+-3--5-3--2----+-5-------5----+=e
 N  C S  N  C S   N  C S  N  N   N  C S  N  N 

-----------+--------------+--------------+=E
-----------+--------------+--------------+=A
-----------+--------------+--------------+=D
-----------+--------------+--------------+=G
-----------+----3-3-----3-+--------------+=B
-5--3-5--7-+-3-------3----+-3--5-3--0--0-+=e
 N  C S  B   N  C S  N  N   N  C S  N  N  

----------------+-----------+=E
----------------+-----------+=A
----------------+-----------+=D
----------------+-----------+=G
------------3-3-+-----------+=B
-5--0-0--3------+-5--7-5--3-+=e
 N  S S  N  C S   N  C S  B

ESTROFAS (I, II, III, IV):

----------------+--------------+--------------+=E
----------------+--------------+--------------+=A
----------------+--------------+--------------+=D
----------------+--------------+--------------+=G
-3--3-3---------+------------3-+-3--3-3-------+=B
---------0-0--0-+-2--3-5--3----+---------0--0-+=e
 N  C C  C C  N   N  C C  N  N   N  C C  N  N                                      


-----------+--------------+--------------+=E
-----------+--------------+--------------+=A
-----------+--------------+--------------+=D
-----------+--------------+--------------+=G
-----------+------------2-+---------3--3-+=B
-2--3-5--3-+-3--3-2--0----+-3--2-0-------+=e 
 N  C C  B   N  C C  N  N   N  C C  N  N

--------------+-----------+=E
--------------+-----------+=A
--------------+-----------+=D
--------------+-----------+=G
-3--3-3-------+-----------+=B
---------0--0-+-2--3-5--3-+=e
 N  C C  N  N   N  C C  B

SI TENGO ALGUN ERROR AVICENME
INFANCIA MISIONERA 
SAN FELIPE APOSTOL 
CALI-COLOMBIA
Suggest correction
Give kudos to tab author, rate the tab!
1 2 3 4 5
comments
print report bad tab
guest
You may want to rate the tab now too:
select rating
Wanna post a correction for this tab? Suggest correction