Oops, an error
Loading. Please wait.

Junto A Ti María Tab

36 views 1 this week
no commentswrite comment
1 2 3 4 5
3 more votes to show rating
add to favorites
×
Save as Personal and add changes to this tab that will be seen only by you. Learn more ›
×
You can save this tab as Personal to edit and correct it or add notes. All changes will be seen only by you. Learn more »
save as personal
new!
launch autoscroll
font size
0
reset
how to read this tab
guitar tuner
Autoscroll
slow
fast
+/-
esc
set tempo
stop
Aquí esta, suena muy bien...
Solo hay que fijarse bien en los tiempos de cambio.
Esta en el tono estándar, si encuentran que no suena bien con la
escuchan solo suban el tono.(Aquí en lacuerda, tenemos esa herramienta)
La saque con esta:

----

INTRO:
     D      A
e|------2--0-------
B|----3------2-----  (Las veces Necesarias)
G|--2----------2---
D|-0-------------2-


--Verso en punteo--
e|--------------------------------
B|-2s3-3-5-7-7-5--3-2-3-3-5-7-2---
G|--------------------------------

e|--------------------------------
B|-0-2-3-0---3-5-7-5-0-2-3-3s5----
G|---------2----------------------

e|-----------------------------------------------------------
B|-2-2-3-3-5-7-7-5--3-2-3-3-5-7-2--0-2-3-0---3-5-7-5-2-2s3---
G|-----------------------------------------2-----------------


D             A
Junto a ti María,
     Bm             F#m
Como niño quiero estar,
G              D
Tómame en tus manos,
    E             A
Guíame en mi caminar.

D               A
Quiero que me eduques,
         Bm       F#m
Que me enseñes a rezar,
G             D
Hazme transparente,
     A      D   A7
Lléname de paz.


Este es el Punteado del Coro, es opcional de fondo.

e|-/2-5-7-2-2-0-2--3-2--3-2-0---------
B|----------------------------3-3s5---

e|-/2-5-7-2-2-0-2--3-2--3-2-0---------
B|----------------------------2-2s3---

D  A   Bm F#m
MADRE, MADRE,
G  D   E   A   A7
MADRE, MADRE.


D  A   Bm F#m
MADRE, MADRE,
G  D   E  A  D   A7
MADRE, MAAADRE.

     D      A7
e|------2-------0--
B|----3-------2----
G|--2-------0------
D|-0------2--------


D              A
Gracias Madre mía,
Bm               F#m
Por llevarnos a Jesús,
G                D
Haznos más humildes,
       E           A
Tan sencillos como tú.

D              A
Gracias Madre mía,
Bm              F#m
Por abrir tu corazón,
G                 D
Porque nos congregas
       A       D   A7
Y nos das tu amor.

D  A   Bm F#m
MADRE, MADRE,
G  D   E   A   A7
MADRE, MADRE.


D  A   Bm F#m
MADRE, MADRE,
G  D   E  A  D
MADRE, MAAADRE.

--

F. Ricardo
Preguntas, sugerencias al correo.
Gracias.
Suggest correction
Give kudos to tab author, rate the tab!
1 2 3 4 5
comments
print report bad tab
guest
Wanna post a correction for this tab? Suggest correction