Oops, an error
Loading. Please wait.

Ofrenda De Amor Tab

28 views 3 this week
no commentswrite comment
1 2 3 4 5
3 more votes to show rating
add to favorites
launch autoscroll
font size
0
reset
how to read this tab
guitar tuner
×
Best way to learn
"Ofrenda De Amor"
Autoscroll
slow
fast
+/-
esc
set tempo
stop
Saludos para la gentita brava de Juventud Cristiana,
el mejor grupo parroquial.
Bueno, dudas o sugerencias serán bien recibidas...

e--0-1-3-3------|---3-3-1.-0-0---|--0-1-3-3--------|---3-5-3.-1-3----|
B---------------|--------------3-|-----------------|-----------------|
G---------------|----------------|-----------------|-----------------|
D---------------|----------------|-----------------|-----------------|
A---------------|----------------|-----------------|-----------------|
E---------------|----------------|-----------------|-----------------|


e--0-1-3-3------|---3-3-1.-0-0---|--0--------------|-----0-0.--------|
B---------------|--------------3-|----3-1-1--------|---3-----3-1-----|
G---------------|----------------|-----------------|-----------------|
D---------------|----------------|-----------------|-----------------|
A---------------|----------------|-----------------|-----------------|
E---------------|----------------|-----------------|-----------------|

e--5-5-5-3------|---1-5-8-7.-----|--5-5-5-3.-1-3---|---0-0-0---------|
B---------------|----------------|-----------------|---------3-------|
G---------------|----------------|-----------------|-----------------|
D---------------|----------------|-----------------|-----------------|
A---------------|----------------|-----------------|-----------------|
E---------------|----------------|-----------------|-----------------|

e----0-3-1------|---1-0-0-0------|
B--1------------|-----------3-3-1|
G---------------|----------------|
D---------------|----------------|
A---------------|----------------|
E---------------|----------------|
Suggest correction
Give kudos to tab author, rate the tab!
1 2 3 4 5
comments
print report bad tab
guest
You may want to rate the tab now too:
select rating
Wanna post a correction for this tab? Suggest correction