Oops, an error
Loading. Please wait.

Padre Nuestro Tab

version 1
version 1

Whole song

46 views 1 this week
no commentswrite comment
1 2 3 4 5
3 more votes to show rating
add to favorites
launch autoscroll
font size
0
reset
how to read this tab
guitar tuner
×
Best way to learn
"Padre Nuestro"
Autoscroll
slow
fast
+/-
esc
set tempo
stop
Esta canción se escucha muy bien, cuando 2 guitarras las interpretan,
tan solo hay que escuchar bien la canción para que las 2 vayan al par.
Esta rola la quiero dedicar a toda mi familia y todos los musicos
de C.d sahagún. Que dios los bendiga hoy siempre,
 por allá nos vemos pronto. Paulinov17@

Solo o acompañamiento

  Em                D                 Em             C        G

e--0----------------2------------------0----------------------------
B--0----------0-0---3------------------0-------0-0--3-3-3s5-5-3-----
G--0------0-0-------2-------------2-2--0---0-0----------------------
D--2--2-2-----------0---0-0--4-4-------2----------------------------
A--2-----------------------------------2----------------------------
E--0-----------------------------------0----------------------------

Riff 2        C        G      C                   G       D
e-------------------------------------------------------------------
B-------0-0--3-3-3s5-5-3------5-5-7-8-8-8-7-5-3-5-3-0-----3---------
G--0-0--------------------0-0-------------------------0-0----------
D------------------------------------------------------------------
A-------------------------------------------------------------------
E-------------------------------------------------------------------

         Em
e--------0--------
B--------0--------
G--------0--------
D--4-5-2-2--------
A--------2--------
E--------0--------

Segunda guitarra:

 Em                    D
padre nuestro tu que estas,
                      Em
en los que aman la verdad
                       [ch]C SOL[/ch]
que el reino que nos prometio
[ch]Em                      [ch]C[/ch] SOL[/ch]
llegue pronto a nuestro corazon
        [ch]C                  SOL[/ch]
que el amor que tu hijo nos dejo
    [ch]E        [ch]D[/ch]      MIm[/ch]
el amor habite  en   nosotros.


(aquí se puede volver a meter el intro, con 2 guitarras)


[ch]Em[/ch]               [ch]D[/ch]
en  el pan de la unidad
                    [ch]Em[/ch]
cristo danos tu la paz
               [ch]C    SOL[/ch]
y olvidate de nuestro mal
[ch]Em                  [ch]C[/ch]   SOL[/ch]
si olvidamos el de los demas
      [ch]C[/ch]
no permitas
                       [ch]G[/ch]    [ch]Em[/ch]
que caigamos en tentacion oh señor
         [ch]D      MIm[/ch]
y ten piedad del mundo
Suggest correction
Give kudos to tab author, rate the tab!
1 2 3 4 5
comments
print report bad tab
guest
You may want to rate the tab now too:
select rating
Wanna post a correction for this tab? Suggest correction