Oops, an error
Loading. Please wait.

Pescador De Hombres Tab

version 1
version 1

Whole song

52 views 1 this week
no commentswrite comment
1 2 3 4 5
3 more votes to show rating
add to favorites
×
Save as Personal and add changes to this tab that will be seen only by you. Learn more ›
×
You can save this tab as Personal to edit and correct it or add notes. All changes will be seen only by you. Learn more »
save as personal
new!
launch autoscroll
font size
0
reset
how to read this tab
guitar tuner
Autoscroll
slow
fast
+/-
esc
set tempo
stop
saludos a los coros: CAVERVI, AMIGOS DE JESUS, ESTIGMA Y
                     ESPAJAN  de   JESUS DE NAZARETH.


                   INTRO:  GUITARRA.


e ----8---6--8---10--8---6--5--5--6---8--10--10--10--10---8--10--6--6-
B ----10--8--10--11--10--8--6--6--8--10--11--11--11--11--10--11--8--8-
G --------------------------------------------------------------------

e ----3---5---6---8-----8----8---10--6---5---5--
B ----5---6---8---10---10---10---11--8---6---6--
G ----------------------------------------------

e ----1---10---10---12----13---12---10----8-----8----8---6---6----8---10---8----6---5---5-
B ----3---11---11---13----15---13---11---10----10---10---8---8---10---11---10---8---6---6-
G ----------------------------------------------------------------------------------------

E  ---1--1--10--10--10--12--13--12--10---8---8---8--5--6--6---8--10--8---6-6--
B  ---3--3--11--11--11--13--15--13--11--10--10--10--6--8--8--10--11--10--8-6--
G ----------------------------------------------------------------------------


                     INTRO: PIANO.

A-G-A-Bb-A-G-F-F--
G-A-Bb-Bb-Bb-Bb-A-Bb-G-G--
E-F-G-A-A-A-Bb-G-F-F


D-Bb-Bb-C-D-C-Bb-A-A--
A-G-G-A-Bb-A-G-F-F--
D-D-Bb-Bb-Bb-C-D-C-Bb-A-A
A-F-G-G-A-Bb-A-G-F-


                         CANTO:


D - A7             D - D7
Tu has venido a la orilla,
          G                      A7
no has vuscado ni a sabios ni a ricos
D -  A7                D - D7
Tan solo quieres que yo te sigua


         ---- CORO------

G - A7                     Dm B
SEÑOR?   ME HASMIRADO A LOS OJOS,
     E    A7         D  -  D7
SONRIENDO HAS DICHO MI NOMBRE
      G  -  A7          D - B
EN LA ARENA HE DEJADO MI BARCA,
     E     A7             D
JUNTO A TI BUSCARE OTRO MAR


D - A7            D  -  D7
Tu sabes bien lo que tengo,
      G                      A7
en mi barca no hay oro ni espada
 D - A7             D - D7
Tan solo redes y mi trabajo


         ---- CORO------

G - A7                     Dm B
SEÑOR?   ME HASMIRADO A LOS OJOS,
     E    A7         D  -  D7
SONRIENDO HAS DICHO MI NOMBRE
      G  -  A7          D - B
EN LA ARENA HE DEJADO MI BARCA,
     E     A7             D
JUNTO A TI BUSCARE OTRO MAR


D - A7           D - D7
Tu nesecitas mis manos,
     G                      A7
mi cansancio que otros descanse
 D - A7            D  -  D7
Amor que queda seguir amando


         ---- CORO------

G - A7                     Dm B
SEÑOR?   ME HASMIRADO A LOS OJOS,
     E    A7         D  -  D7
SONRIENDO HAS DICHO MI NOMBRE
      G  -  A7          D - B
EN LA ARENA HE DEJADO MI BARCA,
     E     A7             D
JUNTO A TI BUSCARE OTRO MAR


D - A7              D - D7
Tu pescador de otros lagos,
        G                     A7
ansia eterna de almas que esperan
D - A7            D - D7
Amigo bueno asi me llamas


         ---- CORO------

G - A7                     Dm B
SEÑOR?   ME HASMIRADO A LOS OJOS,
     E    A7         D  -  D7
SONRIENDO HAS DICHO MI NOMBRE
      G  -  A7          D - B
EN LA ARENA HE DEJADO MI BARCA,
     E     A7             D
JUNTO A TI BUSCARE OTRO MAR


IMPORTANTE: la guiatarra tiene que ir muy bien afinada,
            especialmente [ch]A 3ra  cuerda (G[/ch]) esto es
            para que te dé un buen sonido en el requinto.
                        bye (@_-)
Suggest correction
Give kudos to tab author, rate the tab!
1 2 3 4 5
comments
print report bad tab
guest
Wanna post a correction for this tab? Suggest correction