Oops, an error
Loading. Please wait.

Pescador De Hombres Tab

version 2
version 2

Whole song

31 views 1 this week
no commentswrite comment
1 2 3 4 5
3 more votes to show rating
add to favorites
launch autoscroll
font size
0
reset
how to read this tab
guitar tuner
×
Best way to learn
"Pescador De Hombres"
Autoscroll
slow
fast
+/-
esc
set tempo
stop
HOLA HERMANOS EN CRISTO... esta es mi primer transcripción...
espero que les sirva... es linda para hacer una introduccino
a la cancion antes de empezar a cantar....
Un aabrazo!!!

   D - A7      D - D7
e-0-------0-1-0--------------/
B------3----------3 ---1-1---/
G----------------------------/
D----------------------------/
A----------------------------/
E----------------------------/
  Tu, has venido a la orilla

   G               A7
e----0-1-1------0-1-0-1------------/
B-3---------------------3-3--------/
G----------------------------------/
D----------------------------------/
A----------------------------------/
E----------------------------------/
no has vuscado ni a sabios ni a ricos

  D -  A7      D - D7
e-------0-0---------0-1------/
B---1-3-----------------3-1-1/
G-0--------------------------/
D----------------------------/
A----------------------------/
E----------------------------/
  Tan solo quieres que yo te sigua


Estribillo
  G - A7          Dm B
E---5---5-7-8-7-5-3-3---------/
B-1---------------------------/
G-----------------------------/
D-----------------------------/
A-----------------------------/
E-----------------------------/
SEÑOR?   ME HASMIRADO A LOS OJOS

   E    A7          D  -  D7
e--1-0-1-1----3-5-3-1-0-0--------/
B-------------------------------/
G-------------------------------/
D-------------------------------/
A-------------------------------/
E-------------------------------/
 SONRIENDO HAS DICHO MI NOMBRE


 G - A7            D - B
e------5-5---5-7-8-7-5-3-3-/
B-1-1----------------------/
G--------------------------/
D--------------------------/
A--------------------------/
E--------------------------/
EN LA ARENA HE DEJADO MI BARCA

  E    A7             D
e-1-0-1--------0-1-0-0-1-------/
B------------3-----------------/
G------------------------------/
D------------------------------/
A------------------------------/
E------------------------------/
JUNTO A TI  BUSCARE OTRO MAR


D - A7            D  -  D7
Tu sabes bien lo que tengo,
      G                      A7
en mi barca no hay oro ni espada
 D - A7             D - D7
Tan solo redes y mi trabajo

ESTRIBILLO............
Suggest correction
Give kudos to tab author, rate the tab!
1 2 3 4 5
comments
print report bad tab
guest
You may want to rate the tab now too:
select rating
Wanna post a correction for this tab? Suggest correction