Oops, an error
Loading. Please wait.

Por La Calzada De Emaús Tab

34 views 1 this week
no commentswrite comment
1 2 3 4 5
3 more votes to show rating
add to favorites
launch autoscroll
font size
0
reset
how to read this tab
guitar tuner
Autoscroll
slow
fast
+/-
esc
set tempo
stop
Help us to improve Ultimate-Guitar.com Take our survey!
×
VERSION PARA MANDOLINA

INTRO

E--0-1-5-3-1-0-1-0--1-0-0--|--0-1-5-3-1-0-1-0--1-0---------------|
A-5---------------5----5---|-5---------------5----55555544445555-|
D--------------------------|-----------------------3333322223333-|
G--------------------------|-------------------------------------|


LLEVA EL SIGUIENTE ARREGLO CUANDO DICE:

...POR ESO ME VUELVO
 TRISTE A [ch]E[/ch] ALDEA DE EMAUS...        POR LA CALZADA....
                        E---------------------
                        A-555544442024--------
                        D---------------------
                        G---------------------


LA VERSION PARA GUITARRA ES LA MISMA, SOLO SE RECORREN
LAS NOTAS QUEDARIA ASI:


                                                      Dm
E--0-1-5-3-1-0-1-0--1-0-0--|--0-1-5-3-1-0-1-0--1-0------|
B-3--------------------3---|-3---------------3----3-----|
G--------------------------|----------------------------|
D--------------------------|----------------------------|


LLEVA EL SIGUIENTE ARREGLO CUANDO DICE:

...POR ESO ME VUELVO                  D
 TRISTE A [ch]E[/ch] ALDEA DE EMAUS...        POR LA CALZADA....
                        E---------------------
                        B-333322220-023-------
                        G----------2----------
                        D---------------------


SON ARREGLOS QUE YO HICE, ESPERO LES GUSTE....SUERTE!!

DUDAS, ESTE ES MI FACEBOOK

Suggest correction
Give kudos to tab author, rate the tab!
1 2 3 4 5
comments
print report bad tab
guest
You may want to rate the tab now too:
select rating
Wanna post a correction for this tab? Suggest correction