Oops, an error
Loading. Please wait.

Puede Ser Que Me Perdone Tab

11 views 1 this week
no commentswrite comment
1 2 3 4 5
3 more votes to show rating
add to favorites
×
Save as Personal and add changes to this tab that will be seen only by you. Learn more ›
×
You can save this tab as Personal to edit and correct it or add notes. All changes will be seen only by you. Learn more »
save as personal
new!
launch autoscroll
font size
0
reset
how to read this tab
guitar tuner
Autoscroll
slow
fast
+/-
esc
set tempo
stop
Intro: C G F G C G


         [ch]C (C[/ch])
1 |--------0---------|
2 |---0-------3---3--| Una vez más rezaré / Le diré que luché en vano...
3 |-0---0-------0----|


       [ch]G (G[/ch])
1 |---3---------3--|
2 |-----3---3------|  de rodillas me pondré / que pequé que soy humano
3 |-0-----0---0----|


    [ch]F (F)   [ch]G[/ch] (G[/ch])
1 |-2----------3---------3-|
2 |----1---------3---3-----| puede ser que una vez más/
3 |-------1--0-----0---0---| pues yo se que una vez más


    [ch]C (C)           [ch]G[/ch] (G[/ch])
1 |---------0----------3---------3-|
2 |----0-------3---3-----3---3-----| Él me perdone... / Él me perdone...
3 |--0---0-------0---0-----0---0---|


CORO

   [ch]C (C)          [ch]G (G)        LAm[/ch] (Am[/ch])
1|--------0----------3---------3---------0---|
2|---0-------3---3-----3---3--------1------1-| Para Dios que conoció
3|-0---0-------0---0-----0---0----0---0------| la tentación


  [ch]Em  (Em)   [ch]F[/ch] (F[/ch])
1|-----------------1---|
2|----0--------1-------| del amigo la traición...
3|-0-----0--2----------|


    [ch]G (G)          [ch]C[/ch] (C[/ch])
1 |---3---------3----------0---------|
2 |-----3---3---------0-------3---3--| yo no dudo Él me perdone
3 |-0-----0---0-----0---0-------0----|


       [ch]G (G[/ch])
1 |---3---------3--|
2 |-----3---3------| Dios mi amigo
3 |-0-----0---0----|


Murió pobre y olvidado / Yo vi sufrir a mi hermano
y yo con los brazos cruzados / y no le tendí la mano
pues yo se que una vez más / puede ser que una vez más
Él me perdone... / Él me perdone...
Suggest correction
Give kudos to tab author, rate the tab!
1 2 3 4 5
comments
print report bad tab
guest
Wanna post a correction for this tab? Suggest correction