Oops, an error
Loading. Please wait.

Señor Ten Piedad Tab

13 views 1 this week
no commentswrite comment
1 2 3 4 5
3 more votes to show rating
add to favorites
launch autoscroll
font size
0
reset
how to read this tab
guitar tuner
×
Best way to learn
"Señor Ten Piedad"
Autoscroll
slow
fast
+/-
esc
set tempo
stop
Bueno, pues este es un requinto que puede
acompañar a este canto, y sique exactamente
la melodia de la letra.

     Dm             Gm    Dm   A7  Dm 
E--------------------------------------
B--------------------------------------
G------7----9--10--12----10-10--9-9--7-
D---7----------------------------------
A--------------------------------------
E--------------------------------------
   Señor   Ten piedad  Señor ten piedad

     Dm             Gm    Dm   A7  Dm
E--------------------------------------
B--------------------------------------
G------7----9--10--12----10-10--9-9--7-
D---7----------------------------------
A--------------------------------------
E--------------------------------------
   Señor   Ten piedad  Señor ten piedad

     F          C          Dm   A7  Dm
E--------------------------------------
B--10-10-----8-----8-------------------
G--------------10--------10-10--9-9--7-
D--------------------------------------
A--------------------------------------
E--------------------------------------
  Cristo   Ten Piedad  Cristo ten piedad 

E--------------------------------------
B--10-10-----8-----8-------------------
G--------------10--------10-10--9-9--7-
D--------------------------------------
A--------------------------------------
E--------------------------------------
  Cristo   Ten Piedad  Cristo ten piedad 

     Dm             Gm    Dm   A7  Dm 
E--------------------------------------
B--------------------------------------
G------7----9--10--12----10-10--9-9--7-
D---7----------------------------------
A--------------------------------------
E--------------------------------------
   Señor   Ten piedad  Señor ten piedad

     Dm             Gm    Dm   A7  Dm 
E--------------------------------------
B--------------------------------------
G------7----9--10--12----10-10--9-9--7-
D---7----------------------------------
A--------------------------------------
E--------------------------------------
   Señor   Ten piedad  Señor ten piedad

Esto lo toco en guitarra eléctrica, con los efectos
Slow attack, blues distortion(muy ligera) y algo
de vibratto, para dar un sonido parecido 
al de un violín. Espero que les sirva.
Suggest correction
Give kudos to tab author, rate the tab!
1 2 3 4 5
comments
print report bad tab
guest
You may want to rate the tab now too:
select rating
Wanna post a correction for this tab? Suggest correction